Song name
# A B C D E F G H I J K L M N O P Q R S T U V W X Y Z

Prong - Revenge Best Served Cold tab

PRONG - Revenge, Best Served Cold
Album: Carved into Stone

Tuning: CGCFAD

NOTE: I tried to tab this from a youtube video (link below) of a guy Ė not me - playing
the song along with the CD. My attempt to tab this is probably not very accurate (it is
my first tab), but I was hoping that someone who could do better with it might feel the 
desire to correct it. Also, none of the solos are tabbed (the guy in the video didnít play
the solos).

http://www.youtube.com/watch?v=Ux1ZDQZd4uo

Overall, it sounds *close* and as long as you know the actual tempo the tablature makes 
some sense.


Intro riff
|-------------------------------|-------------|-------------|
|-------------------------------|-------------|-------------|
|-12---12---12---11---11---11---|-------------|-------------|
|-------------------------------|-8--8--10--8-|-8--8--10--8-|
|-10---10---10---9----9----9----|-8--8--8---8-|-8--8--8---8-|
|----0----0----0----0----0----0-|-8--8--8---8-|-8--8--8---8-|

Riff 1
|---------------------|-------|---------------------|-------|
|---------------------|-------|---------------------|-------|
|---------------------|-------|---------------------|-------|
|---------------------|-1-3-4-|---------------------|-1-4-3-|
|-0-5p0--0-0-5p0h5p0--|-1-3-4-|-0-5p0--0-0-5p0h5p0--|-1-4-3-|
|-0----4-0-0--------4-|-1-3-4-|-0----4-0-0--------4-|-1-4-3-|

Riff 2
|---------------------|-------|---------------------|-------|
|---------------------|-------|---------------------|-------|
|---------------------|-------|---------------------|-------|
|---------------------|-1-3-4-|---------------------|-1-4-3-|
|-0-0------0-0--------|-1-3-4-|-0-0------0-0--------|-1-4-3-|
|-0-0-0000-0-0-0000---|-1-3-4-|-0-0-0000-0-0-0000---|-1-4-3-|


Bridge
|-------|--------|--------|-------|--------|--------|-------|
|-------|--------|--------|-------|--------|--------|-------|
|-------|--------|--------|-------|--------|--------|-------|
|-0-----|-10-----|-11-----|-0-----|-10-----|-11-----|-/13\--|
|-0-----|-10-----|-11-----|-0-----|-10-----|-11-----|-/13\--|
|-0-----|-10-----|-11-----|-0-----|-10-----|-11-(x8)|-/13\--|

Riff 3
|-------------------------|----------------------------|
|-------------------------|----------------------------|
|-------------------------|----------------------------|
|-2-2--0¨-2-2--0-2--0-2-3--|-4-4--2-4-4--2-4--2-4-5----|
|-2-2--0-2-2--0-2--0-2-3--|-4-4--2-4-4--2-4--2-4-5-----|
|-2-2--0-2-2--0-2--0-2-3--|-4-4--2-4-4--2-4--2-4-5-----|
Tap to rate this tab
 
# A B C D E F G H I J K L M N O P Q R S T U V W X Y Z