Song name
# A B C D E F G H I J K L M N O P Q R S T U V W X Y Z

Propagandhi - Showdown tab

This is my first tab, hope you enjoy it.
(standard tuning)

Intro:

E---------------------------------------------------|
B---------------------------------------------------|
G-----------------Bass Only-------------------------|
D---------------------------------------------------|
A---------------------------------------------------|
E---------------------------------------------------|

Verse 1: (00:21)

E--------------------|
B--------------------|
G---------------0--0-|
D-5555-2-55----4--2--|x4
A-5555-2-55-2/5--3---|
E-3333-0-33----------|
   ...

E-----------x--x-----|
B-----------3>-1>----|
G-----------0>-0>----|
D-5555-2-55-4>-2>----|x10
A-5555-2-55-5>-3>----|
E-3333-0-33-5>-3>----|
   ...

Pre-Chorus:(01:13)

E---------------------------------|
B---------------------------------|
G-------------------5x5x5-5>-777>-|
D-2x2x2-2>-5x5x5-5>-5x5x5-5>-777>-|x2
A-2x2x2-2>-5x5x5-5>-3x3x3-3>-555>-|
E-0x0x0-0>-3x3x3-3>---------------|

Chorus: (01:28)  I'm not to sure about this part.

E-------------------------------------|
B-8>-7>-------------------3x----------|
G-7>-7>-5x-2454240x-245424---2454240x-|
D-5>-5>-5x----------------------------|
A-------3x----------------------------|
E-------------------------------------|

Verse 2: (01:43)

E--------------------|
B--------------------|
G---------------0--0-|
D-5555-2-55----4--2--|x4
A-5555-2-55-2/5--3---|
E-3333-0-33----------|
   ...

E-----------x--x-----|
B-----------3>-1>----|
G-----------0>-0>----|
D-5555-2-55-4>-2>----|x10
A-5555-2-55-5>-3>----|
E-3333-0-33-5>-3>----|
   ...

Pre-Chorus:(02:26)

E---------------------------------|
B---------------------------------|
G-------------------5x5x5-5>-777>-|
D-2x2x2-2>-5x5x5-5>-5x5x5-5>-777>-|x2
A-2x2x2-2>-5x5x5-5>-3x3x3-3>-555>-|
E-0x0x0-0>-3x3x3-3>---------------|

Chorus: (02:40)  Still not to sure about this part...

E-------------------------------------|
B-8>-7>-------------------3x----------|
G-7>-7>-5x-2454240x-245424---2454240x-|
D-5>-5>-5x----------------------------|
A-------3x----------------------------|
E-------------------------------------|

Outro: (02:55)

E--------------------|
B--------------------|
G---------------0--0-|
D-5555-2-55----4--2--|x2
A-5555-2-55-2/5--3---|
E-3333-0-33----------|
   ...

E-----------x--x-----|
B-----------3>-1>----|
G-----------0>-0>----|
D-5555-2-55-4>-2>----|x4
A-5555-2-55-5>-3>----|
E-3333-0-33-5>-3>----|
   ...

E--------------------|
B--------------------|
G---------------0--0-|
D-5555-2-55----4--2--|x4
A-5555-2-55-2/5--3---|
E-3333-0-33----------|
   ...

E----------3~-|
B-8>-7>----3~-|
G-7>-7>-5~-4~-|
D-5>-5>-5~-5~-|
A-------3~-5~-|
E----------3~-|

My Notes:

1.On the Chorus it's okay to play the first 3 chords through it, without the fills.
2.There are a lot of dead notes and extra palm mutes that i didn't put in.
3. >=Strum
   .=Palm mute
   ~=Ring out
   x=mute/pause
4. Any questions or if you just want to chat about punkrock music my email is
punkrock_gamer@hotmail.com.
Tap to rate this tab
 
# A B C D E F G H I J K L M N O P Q R S T U V W X Y Z