Guitaretab - guitar tabs
Song name
# A B C D E F G H I J K L M N O P Q R S T U V W X Y Z

Propagandhi - Supporting Caste tab

-------------------------------------------------------------------------------
			     Supporting Caste - Propagandhi
-------------------------------------------------------------------------------
Tabbed by:Doug425
Email:

Tuning: CGCFAD


“...you may as well dance”
e|---------------------------------------------------------------------|
B|---------------------------------------------------------------------|
G|-----------------------4-3-------------------------------------------|
D|---1---4\------3---4~------6-4--------1---4\----3---3-4~--44-3-------|
A|-------------4---4--------------------------------4------------6-4---|
E|-1---1------------------------------1---1----------------------------|
PM * * *        * * *                  * * *                           | 
 |                                                                     |
e|---------------------------------------------------------------------|
B|---------------------------------------------------------------------|
G|---------------------------------------------------------------------|
D|-1~------------------------------------------------------------------|
A|-1~------------------------------------------------------------------|
E|-1~------------------------------------------------------------------|



[ Tab from: http://www.guitaretab.com/p/propagandhi/181479.html ]
e|----------------------------------------------|
B|---------------------6--6~----------4~----6~--|
G|--8-8-6-8~-----------6--6~----------4~----6~--|
D|--8-8-6-8~-----------6--6~----------4~----6~--|
A|--6-6-4-6~-----------4--4~----------2~----4~--|
E|----------------------------------------------|
 |                                              |  X2
e|------------------------------6---------------|
B|---------------7-6---6--6~----------4~----6~--|
G|--8-8-6-8~-----------6--6~--/8-8~---4~----6~--|
D|--8-8-6-8~---/8-8----6--6~----------4~----6~--|
A|--6-6-4-6~-----------4--4~----------2~----4~--|
E|----------------------------------------------|



e|----------------------------------------------|
B|---------------7-6---6--6~----------4~----6~--|
G|--8-8-6-8~-----------6--6~----------4~----6~--|
D|--8-8-6-8~---/8-8----6--6~----------4~----6~--|
A|--6-6-4-6~-----------4--4~----------2~----4~--|
E|----------------------------------------------|
 |                                               |  X2
e|------------------------------6---------------|
B|---------------7-6---6--6~----------4~----6~--|
G|--8-8-6-8~-----------6--6~--/8-8~---4~----6~--|
D|--8-8-6-8~---/8-8----6--6~----------4~----6~--|
A|--6-6-4-6~-----------4--4~----------2~----4~--|
E|----------------------------------------------|



| /  slide up
| \  slide down
| h  hammer-on
| p  pull-off
| ~  vibrato
| +  harmonic
| x  Mute note
===============================================================================

Related for Supporting Caste tab
×
Supporting Caste