Song name
# A B C D E F G H I J K L M N O P Q R S T U V W X Y Z

Propagandhi - This Might Be Satire tab

-----------------------------------------------------------------------------
This might be satire - Porpagandhi
-----------------------------------------------------------------------------
Tabbed by: Balloonatic
Email: daviiiden@hiotmail.com

Tuning: Standard


Intro/Verse, 1
e|--------------------------------------------------------------------------|
B|--------------------------------------------------------------------------|
G|--7-x777777-7-x77-6-6h7p6------------7-x7-7-6-7---------------------------|
D|--7-x777777-7-x77-7-------5-x555555--7-x7-7-7-7-x5------------------------|
A|--------------------------5-x555555---------------------------------------|
E|--------------------------3-x333333---------------------------------------|

e|--------------------------------------------------------------------------|
B|--------------------------------------------------------------------------|
G|--7-x777777-7-x77-6-6h7p6------------7-x7-7-6-----------------------------|
D|--7-x777777-7-x77-7-------5-x555555--7-x7-7-7-----------------------------|
A|--------------------------5-x555555---------------------------------------|
E|--------------------------3-x333333---------------------------------------|

Pre-Chorus
e|--------------------------------------------------------------------------|
B|--------------------------------------------------------------------------|
G|--------------------------------------------------------------------------|
D|--77777777777--55555555555--77777777777--55555-7--------------------------|
A|--77777777777--55555555555--77777777777--55555-7--------------------------|
E|--55555555555--33333333333--55555555555--33333-5--------------------------|

Chorus
e|--------------------------------------------------------------------------|
B|--------------------------------------------------------------------------|
G|--77777777777---------------77777777777-----------------------------------|
D|--77777777777--55555555555--77777777777--77777777777----------------------|
A|--55555555555--55555555555--55555555555--77777777777----------------------|
E|---------------33333333333---------------55555555555----------------------|

Bridge
e|--------------------------------------------------------------------------|
B|------------------------8------10-----------------------------------------|
G|------7----9----11----7------9----9---------------------------------------|
D|----7---------------5----5-7---------x3-----------------------------------|
A|--5----5-7----9-----------------------------------------------------------|
E|--------------------------------------------------------------------------|

e|--------------------------------------------------------------------------|
B|------------------------8--10101010101010---------------------------------|
G|------7----9----11----7----9-9-9-9-9-9-9----------------------------------|
D|----7---------------5----5-7-7-7-7-7-7-7----------------------------------|
A|--5----5-7----9-----------------------------------------------------------|
E|--------------------------------------------------------------------------|

Outro
e|--------------------------------------------------------------------------|
B|--------------------------------------------------------------------------|
G|--7-x777777-7-x77-6-6h7p6------------7-x7-7-6-7---------------------------|
D|--7-x777777-7-x77-7-------5-x555555--7-x7-7-7-7-x2------------------------|
A|--------------------------5-x555555---------------------------------------|
E|--------------------------3-x333333---------------------------------------|

e|--------------------------------------------------------------------------|
B|---------------------------------------7h8p7------------------------------|
G|--7-x777777-6-x6-9-6-7-x777777--7-x7-6------------------------------------|
D|--7-x777777-7-x7-7-7-5-x555555--7-x7-7--------x2--------------------------|
A|--------------------------------------------------------------------------|
E|--------------------------------------------------------------------------|

e|--------------------------------------------------------------------------|
B|--------------------------------------------------------------------------|
G|--7-x777777-7-x77-6-6h7p6------------7-x7-7-6-7---------------------------|
D|--7-x777777-7-x77-7-------5-x555555--7-x7-7-7-7---------------------------|
A|--------------------------5-x555555---------------------------------------|
E|--------------------------3-x333333---------------------------------------|

e|--------------------------------------------------------------------------|
B|--------------------------------------------------------------------------|
G|--7-x777777-7-x77-6-6h7p6-------------------------------------------------|
D|--7-x777777-7-x77-7-------5-----------------------------------------------|
A|--------------------------5-----------------------------------------------|
E|--------------------------3-----------------------------------------------|


Here you have the 100% correct tab for This Might Be Satire! Enjoy:)

*2

Tap to rate this tab
 
# A B C D E F G H I J K L M N O P Q R S T U V W X Y Z