Song name
# A B C D E F G H I J K L M N O P Q R S T U V W X Y Z

Propagandhi - Todays Empires Tomorrows Ashes tab

-----------------------------------------------------------------------------
                     TODAYS EMPIRE TOMORROW'S ASHES - Propagandhi
-----------------------------------------------------------------------------

Firstly, i'm not going to take credit for this work, after looking around
 everywhere for a decent guitar tab for this song i found this one and its
pretty much spot on as far as i can tell. There's a couple of tiny bits
missing (like the fiddly bit just before the final chorus) but its far
better than the others posted here.
Enjoy mofos! :)


Tabbed by:Bruno Cesare Sanavio (todays_empire@yahoo.it)


Intro
e|-----------------------------------|
b|-----------------------------------|
g|----9------------------------------|      x4
D|----9----9----7--------------------|
A|----7----9----7--------------------|
E|---------7----5--------------------|

Chorus
e|-----------------0-----------------|
b|-----------------0-----------------|
g|----------4------2-----------------|
D|---2------4------2-----------------|     x4
A|---2------2------0-----------------|
E|---0-------------------------------|

Another part("sometimes the ties that blind are strange...")
e|--------0----------0----------------0-----|
b|-----------0----------0-------------0-----|
g|-----4--------4---------4---6-------2-----|       x2
D|-----4----------------------6-------2-----|
A|-----2-----------2----------4-------0-----|
E|------------------------------------------|

chorus

Little Solo
e|------------------------------------------4--------------------------|
b|--------------------------------------------5--------5--7___9___7--5-|
g|---------4--------6-----0----------4---------------------------------|
D|------4--------6--------0-------4-----------------7------------------|
A|---2--------4-----------2----2----------4----------------------------|
E|---------------------------------------------------------------------|

Another part#2("but undercover of thecostumary gap...")
      pm   pm                      pm   pm
e|----------0-------------0--------------0-------------4------------|
b|----------0-------0--------0-----------0-------0---------0--------|
g|-----6----2----2-----2--------2---6----2---2-------2--------2-----|    x2
D|-----6----2-----------------------6----2--------------------------|
A|-----4----0-----------------------4----0--------------------------|
E|------------------------------------------------------------------|

chorus

Final
e|------------0-------0-------0--      e|----0----2----7--------4--5--7--12-|
b|---------------0-------0------0      b|-----------------------------------|
g|----4---2--------2-------2-----      g|-----------------------------------|
D|----4---2----------------------  x?  D|-----------------------------------|
A|----2---0----------------------      A|-----------------------------------|
E|-------------------------------      E|-----------------------------------|

-----------------------------------------------------------------------------
Tap to rate this tab
# A B C D E F G H I J K L M N O P Q R S T U V W X Y Z