Song name
# A B C D E F G H I J K L M N O P Q R S T U V W X Y Z

Propagandhi - Ego Fum Papa I Am The Pope tab

Tuning: Standard

Verse Part 1:
e|---------------------------------------|
B|---------------------------------------|
G|------------7-6------------------------|
D|---9-9-9-9-------5-5-5-5--7-7-7-7--X4--|
A|---9-9-9-9-------5-5-5-5--7-7-7-7------|
E|---7-7-7-7-------3-3-3-3--5-5-5-5------|
Part 2:
e|----------------------------------|
B|----------------------------------|
G|----------------------------------|
D|---9-9-9-9--5-5-5-5--7-7-7-7--X1--|
A|---9-9-9-9--5-5-5-5--7-7-7-7------|
E|---7-7-7-7--3-3-3-3--5-5-5-5------|
Part 1 X5
Part 2 X5
Outro:
e|---------------------------------------0-------------------|
B|-----------------------------------------1---1-------------|
G|---9-----9-----9-----9--5-----5-----5------2---2-------X4--|
D|---9-9-9-9-9-9-9-9-9-9--5-5-5-5-5-5-5------------2---------|
A|---7-7-7-7-7-7-7-7-7-7--3-3-3-3-3-3-3--------------0-------|
E|-----------------------------------------------------------|
   PM  . .   . .   . .      . .   . .
End on:
e|--------|
B|--------|
G|--------|
D|---2----|
A|---2----|
E|---0----|
Tap to rate this tab
 
# A B C D E F G H I J K L M N O P Q R S T U V W X Y Z