Song name
# A B C D E F G H I J K L M N O P Q R S T U V W X Y Z

Propagandhi - Supporting Caste tab

			     		Supporting Cast(e) - Propagandhi

Tabbed by: snaps-13


Tuning: Db Ab Db Gb Bb eB
       
      (FTO): First Fime Only
      (LTO): Last Time Only
        /  : Slide Up Neck
        *  : Palm Mute
        ~  : Hold Note





Intro

eb|--0--0-0-----------------------1-3-1-3---0--0---------------------1-3-1-3--|
Bb|--3--3-3-----5--5------6--6----1-1-1-1---3--3-----5--5------------1-1-1-1--|
Gb|--2--2-2-----5--5------5--5--------------2--2-----5--5-----4-4-------------|
Db|--0--0-0-----2--2------3--3--------------0--0-----2--2-----5-5-------------|
Ab|-----------------------------------------------------------2-2-------------|
Db|---------0-0-------0-0------0-----------------0-0------0-0-----0-----------|
            * *       * *      *                 * *      * *     * 

eb|--0--0-----------------------1-3-1-3---|------------------------------|
Bb|--3--3-----5--5------6--6----1-1-1-1---|------------------------------|
Gb|--2--2-----5--5------5--5--------------|--3--3--3----3--3--3----------|
Db|--0--0-----2--2------3--3--------------|--3--3--3----3--3--3------7~--|
Ab|---------------------------------------|--1--1--1----1--1--1------5~--|
Db|-------0-0-------0-0------0------------|----------------------0---5~--|
          * *       * *      *					                             * 




Verse I

	When the credits finally
	Roll for this the
	Worst story ever
	Told don't bother

eb|-----------------------------------------------------------------------------|
Bb|-----------------------------------------------------------------------------|
Gb|--5/7-----7-7----------------------------5/7-----7-7-------------------------| 
Db|--5/7-----7-7----------------------------5/7-----7-7-------------------------|
Ab|--3/5-5-5-5-5----10-10-10-10-10-10-12----3/5-5-5-5-5----10-10-10-10-10-10-8--|
Db|-----------------------------------------------------------------------------|
	         * * 	         *  *  *  * 	          	  * *	          *  *  *  * x2

eb|-----1---------|
Bb|--3~-----1-3~--|
Gb|--3~---3-------|
Db|--3~-----------|
Ab|--1~-----------|
Db|---------------|

	



Verse II

	Sifting through the names
	For yours or anyone you know
	Unless they... Were by chance a shepherd king,
	A virgin birth, a resurrection, a messianic prince or some
	Such childish thing. You can storm the edit suite
	
	Or move to block its theatrical release,
	But i think we... Can safely guarantee
	There will be no revisions to the script
	made on behalf... Of a supporting cast(e).

eb|-0-0-0-0-1-1-1-1---------------------0-0-0-0-1-1-1-1--|
Bb|-3-3-3-3-3-3-3-3---3-3-3-3-3-3-3-3---3-3-3-3-3-3-3-3--|
Gb|-2-2-2-2-2-2-2-2---3-3-3-3-3-3-3-3---2-2-2-2-2-2-2-2--|
Db|-0-0-0-0-0-0-0-0---3-3-3-3-3-3-3-3---0-0-0-0-0-0-0-0--|
Ab|-------------------1-1-1-1-1-1-1-1--------------------|
Db|------------------------------------------------------|


eb|-------------------0-0-0-0------------------------------------------------|------------|
Bb|-3-3-3-3-3-3-3-3---3-3-3-3--5-5--6-6---1-1-1-1-1-1-1-1---3-3-3-3-3-3-3-3--|--3-3-3-3~--|
Gb|-3-3-3-3-3-3-3-3---2-2-2-2--5-5--5-5---0-0-0-0-0-0-0-0---3-3-3-3-3-3-3-3--|--3-3-3-3~--|
Db|-3-3-3-3-3-3-3-3---0-0-0-0--2-2--3-3---2-2-2-2-2-2-2-2---3-3-3-3-3-3-3-3--|--3-3-3-3~--|
Ab|-1-1-1-1-1-1-1-1-----------------------3-3-3-3-3-3-3-3---1-1-1-1-1-1-1-1--|--1-1-1-1~--|
Db|--------------------------------------------------------------------------|------------|
									   x2	  * * *(FTO)

Breakdown I

eb|-------------------------------------|
Bb|------------------------15-15-15-13--|
Gb|--5--7------9-10--------14-14-14-14--|	(YES)		
Db|--5--7-----10-10--------12-12-12-12--|
Ab|--3--5-------------------------------|
Db|-------------------------------------|





Repeat Verse I





Pre-Breakdown

	Because history exalts... Only
	The Pornography of force... That of
	Murderers and psychopaths... (The rest of us of course,
	Stricken from the narrative wholesale: A back drop to the tale)

eb|--------------1~---------------------------------1----------------|
Bb|--3~----1~----3~----5-6-8------------3~----1~----3----5-6-8--6-5--|
Gb|--3~----0~----2~----5-5-5------------3~----0~----2----5-5-5--5-5--|
Db|--3~----2~----0~---------------------3~----2~----0----------------|
Ab|--1~----3~-----------------8-7/------1~----3~---------------------|
Db|------------------------------------------------------------------|


eb|--------------1~--------------------------------------|
Bb|--3~----1~----3~----5-5----6-6----1~-------3~------3--|
Gb|--3~----0~----2~----5-5----5-5----0~-------3~------3--|	(OHH)
Db|--3~----2~----0~----2-2----3-3----2~-------3~------3--|
Ab|--1~----3~------------------------3~-------1~------1--|
Db|------------------------------------------------------|





Breakdown 

	As we, the two bits
	Are ushered on and swiftly off the stage with
	The jawbones of asses
	No stirring curtain call for the masses.
	

eb|--------------------------------------------------------------------------------|
Bb|--------------------------------------------------------------------------------|
Gb|--5-7---------9-10/------7-7---------9-10/------7-7---------9-10/------5-7------|
Db|--5-7--------10-10/------7-7--------10-10/------7-7--------10-10/------5-7------|
Ab|--3-5-5-5----------------5-5-5-5----------------5-5-5-5----------------3-5-5-5--|
Db|--------------------------------------------------------------------------------|
	     * *			* *		    * *		       * *

eb|-------------------------------------|
Bb|-------------------------------------|
Gb|-------------3-3-3-3-2----3-3-3-3-2--|
Db|--3-3-5-7----3-3-3-3-3----3-3-3-3-3--|
Ab|-------------1-1-1-1-0----1-1-1-1-0--|
Db|-------------------------------------|
				      




Pre-Bridge

	No floral bouquet, No breaking of leggs, 
	No recurring role, No artistic control.

eb|------------------------------------------------------------------------|
Bb|------------------------------------------------------------------------|
Gb|--10-10-10-10--9----10-10-10-10--9----10-10-10-10--9----10-10-10-10--9--|
Db|--10-10-10-10-10----10-10-10-10-10----10-10-10-10-10----10-10-10-10-10--|
Ab|---8--8--8--8--7-----8--8--8--8--7-----8--8--8--8--7-----8--8--8--8--7--|
Db|------------------------------------------------------------------------|


eb|--------------------------|--0~--|
Bb|--------------------------|--2~--|
Gb|--3-3-3-3-2----3-3-3-3-2--|--3~--|
Db|--3-3-3-3-3----3-3-3-3-3--|--0~--|
Ab|--1-1-1-1-0----1-1-1-1-0--|--0~--|
Db|--------------------------|--0~--|





Bridge

	And so in these days, In this terminal phase,
	It's all left to chance,
	A piece of advice: If your cast on thin ice
	
eb|--------------------------------------------------1~--|
Bb|--------------1~----------------3~----------------3~--|
Gb|-----------2--0~----0--0--------3~----------------2~--|
Db|--0--0--3-----2~----------2-----3~----3--2--------0~--|
Ab|--------------3~-------------3--1~----------3--0------| 
Db|------------------------------------------------------|
						                                      x2

eb|--------------------------------------1--0--------1~--|
Bb|--------------1~----------3--1--3~----------1-----3~--|
Gb|-----------2--0~-------2--------3~-------------0--2~--|
Db|--0--0--3-----2~----0-----------3~----------------0~--|
Ab|--------------3~----------------1---------------------|
Db|------------------------------------------------------|


eb|----------------------------------------|
Bb|-----------2--1~----------------3~--1~--|
Gb|--0--0--3-----0~----0--0--------3~--2~--|
Db|--------------2~----------2-----3~--2~--|
Ab|--------------3~-------------3--1~--0~--|
Db|----------------------------------------|





Solo

	You may as well dance!

eb|----------------------------------------------------------------------|
Bb|----------------------------------------------------------------------|
Gb|----------------0-----3-2-0-------------------------------------------|
Db|-------------------3--------3------------------2------2-3~--33-2-0----|
Ab|----0---8/---3-------------------------0---8\-----3----------------3--|
Db|--0---0------------------------------0---0----------------------------|
     * * *                              * * *                    x4   




Outro I

	Do what you feel you must,
	But as for me I was not
	Put upon this Earth
	To subjugate or serve

eb|-------------------------------5----------------------|
Bb|---------------6--5---5--5------------3-3-3--3----5~--|
Gb|--7-7-5-7-------------5--5---7---7----3-3-3--3----5~--|
Db|--7-7-5-7----7--7-----5--5------------3-3-3--3----5~--|
Ab|--5-5-3-5-------------3--3------------1-1-1--1----3~--|
Db|------------------------------------------------------|
						                           x4




Outro II

eb|--------------------------------------------------------------|-----|
Bb|--------------------------------------------------------------|--1--|
Gb|--7-7-5-7-------------------------7-7-5-7---------------------|--2--|
Db|--7-7-5-7----7-7-7--5-5-5--0------7-7-5-7----7-7-7--5-5-5--0--|--2--|
Ab|--5-5-3-5----5-5-5--5-5-5--0------5-5-3-5----5-5-5--5-5-5--0--|--0--|
Db|-------------5-5-5--5-5-5--0-----------------5-5-5--5-5-5--0--|-----|
 								           (LTO)




Repeat Intro
Tap to rate this tab
 
# A B C D E F G H I J K L M N O P Q R S T U V W X Y Z