Song name
# A B C D E F G H I J K L M N O P Q R S T U V W X Y Z

Propagandhi - Rock For Sustainable Capitalism tab

Tuning: Standard
Intro:
e|--------------------------------------------------------------------------|
B|--------------------------------------------------------------------------|
G|--------------------------------------------------------------------------|
D|---7-7-7-7-7-5-5-5-5-5-7-7-7-7-7-5-5-5-5-5---7---7---7---7---7---7--------|
A|---0-0-0-0-0-0-0-0-0-0-0-0-0-0-0-0-0-0-0-0---0---0---0---0---0---0--------|
E|--------------------------------------------------------------------------|
Play this part x4
e|-------------------------|
B|-------------------------|
G|-------------------------|
D|---7-7-7-7-7-5-5-5-5-5---|
A|---0-0-0-0-0-0-0-0-0-0---|
E|-------------------------|
Verse: Part A
e|--------------------------------------------------------------------------|
B|--------------------------------------------------------------------------|
G|---5---7---3--------------------------------------------------------------|
D|---5---7---3--7-7-7-7-7-5-5-5-5-5-7-7-7-7-7-5-5-5-5-5-7-7-7-7-7-5-5-5-5-5-|
A|---3---5---1--0-0-0-0-0-0-0-0-0-0-0-0-0-0-0-0-0-0-0-0-0-0-0-0-0-0-0-0-0-0-|
E|--------------------------------------------------------------------------|
Part B                                        Play this part x4
e|-----------------------------------------|----------------------|
B|-----------------------------------------|----------------------|
G|--5-5-5-5-5-5-5-5-5-5---7---3-3-3-3-3-3--|----------------------|
D|--5-5-5-5-5-5-5-5-5-5---7---3-3-3-3-3-3--|-7-7-7-7-7-5-5-5-5-5--|
A|--3-3-3-3-3-3-3-3-3-3---5---1-1-1-1-1-1--|-0-0-0-0-0-0-0-0-0-0--|
E|-----------------------------------------|----------------------|

e|---------------------------------|
B|---5p3p2p0-----------------------|
G|-----------3p2p0-----------------|
D|-----------------3p2p0-----------|
A|-----------------------3p2p0-----|
E|---------------------------------|
Chorus:
e|--------------------------------------------------------------------------|
B|--------------------------------------------------------------------------|
G|--------------------------------------------------------------------------|
D|---5-7-7-7-7-3-3-5-5-7-5-7-7-7-7-3-3-5-5-7-5-7-7-7-7-3-3-5-5-7-5-7-7-7-7--|
A|---5-7-7-7-7-3-3-5-5-7-5-7-7-7-7-3-3-5-5-7-5-7-7-7-7-3-3-5-5-7-5-7-7-7-7--|
E|---3-5-5-5-5-1-1-3-3-5-3-5-5-5-5-1-1-3-3-5-3-5-5-5-5-1-1-3-3-5-3-5-5-5-5--|

e|-----------------------|
B|-----------------------|
G|-----------------------|
D|--7-7-7-7-7-5-5-5-5-5--| x4
A|--0-0-0-0-0-0-0-0-0-0--|
E|-----------------------|
Verse part B x2
Chorus

Bridge: Part A x4 
e|---------------------------------|
B|---------------------------------|
G|---------------------------------|
D|---3---7-7-7-7-7-5-5-5-5-5-------|
A|---3---0-0-0-0-0-0-0-0-0-0-------|
E|---1-----------------------------|

Part B
e|------------------------------------------|
B|------------------------------------------|
G|------------------------------------------|
D|--7-7-9-9-10-10-12-12--3-3-3-3-3-3-3-3-3--| x2
A|-----------------------3-3-3-3-3-3-3-3-3--|
E|--5-5-7-7--8--8-10-10--1-1-1-1-1-1-1-1-1--|

e|----------------------------------------------------|
B|----------------------------------------------------|
G|----------------------------------------------------|
D|--7-7-9-9-10-10-12-12--5-5-5-5-5-5-3-3-3-3-3-3-3-3--|
A|-----------------------5-5-5-5-5-5-3-3-3-3-3-3-3-3--|
E|--5-5-7-7--8--8-10-10--3-3-3-3-3-3-1-1-1-1-1-1-1-1--|
Part C
e|-------3-3----3-3--1-1---------3-3-----3-3--1-1----------------|
B|--2-2--3-3----3-3--1-1----2-2--3-3-----3-3--1-1----------------|
G|--2-2--0-0----0-0--2-2----2-2--0-0-----0-0--2-2----------------|
D|--2-2--0-0----0-0--3-3----2-2--0-0-----0-0--3-3---3-3-3-3-3----|
A|--0-0--2-2----2-2--3-3----0-0--2-2-----2-2--3-3---3-3-3-3-3----|
E|-------3-3----3-3--1-1---------3-3-----3-3--1-1---1-1-1-1-1----|
Part D
e|-----------------------------------------------------------------|
B|------------8----------------------------------------------------|
G|--2-2-2-------7--4-4--5-5----4h5p4-------------------------------|
D|--2-2-2--5-------5-5--3-3--5-------------------------------------| x2
A|--0-0-0-----------------------------5-5-3-3-0-5-5-3-3-0-5-5-3-3--|
E|-----------------------------------------------------------------|
                                   PM........   .......   .......
Repeat these two parts for the rest of the song
e|-----------------------------------------------------------------|
B|------------8----------------------------------------------------|
G|--2-2-2-------7--4-4--5-5----4h5p4-------------------------------|
D|--2-2-2--5-------5-5--3-3--5-------------------------------------| 
A|--0-0-0-----------------------------5-5-3-3-0-5-5-3-3-0-5-5-3-3--|
E|-----------------------------------------------------------------|
                                   PM........   .......   .......
e|-------------------------------------------------------------|
B|------------8------------------------------------------------|
G|--2-2-2-------7--4-4--5-5--4-5-------------------------------|
D|--2-2-2--5-------5-5--3-3--5-5-------------------------------|
A|--0-0-0-------------------------5-5-3-3-0-5-5-3-3-0-5-5-3-3--|
E|-------------------------------------------------------------|
                                PM.......   .......   .......
Ending Solo: x4
e|----------------------------------------------|
B|----------------------------------------------|
G|---14-14-14--14-14-14-14-14-16b--9-10-12-10---|
D|----------------------------------------------|
A|----------------------------------------------|
E|----------------------------------------------|
End with
e|--------------|
B|---14-14-14---|
G|--------------|
D|--------------|
A|--------------|
E|--------------|


Tap to rate this tab
# A B C D E F G H I J K L M N O P Q R S T U V W X Y Z