Song name
# A B C D E F G H I J K L M N O P Q R S T U V W X Y Z

Propagandhi - Pigs Will Pay tab

Band: Propagandhi
Song: Pigs Will Pay
Album: How to Clean a Couple O' Things

The live version on "Where Quantity is Job #1" is a bit different.
However I tabbed out the fill that Chris plays at the beginning
at the bottom of this document.

This tab is intended for www.ultimate-guitar.com.

7/2/06

Key:
p: pull-off
h: hammer-on

There's alot of palm-muting in this song. Basically, if I didn't include
the octave in the power chord, it's muted. You figure it out.

Intro:
(0:01)
E|----------------------------------------------------------------------|
B|-----------------8----8----8------------------------------------------|
G|-7----7----7---777-77-7-77-7------------------------------------------|
D|-7-77-7-77-7---555-55-5-55-5---7----7----7----7----7-7-7-7------------|
A|-5-55-5-55-5-----------------777-77-7-77-7-77-7-77-7-7-7-7------------|
E|-----------------------------555-55-5-55-5-55-5-55-5-5-5-5------------|

(0:07)
E|----------------------------------------------------------------------|
B|-----------------8----8----8---8----8----8----8----8-8-8-8------------|
G|---7----7----7-777-77-7-77-7-777-77-7-77-7-77-7-77-7-7-7-7------------|
D|-777-77-7-77-7-555-55-5-55-5-555-55-5-55-5-55-5-55-5-5-5-5------------|
A|-555-55-5-55-5--------------------------------------------------------|
E|----------------------------------------------------------------------|

(0:12)
E|----------------------------------------------------------------------|
B|-----------------8-----8-----8----------------------------------------|
G|-7-----7-----7-777-77777-77777----------------------------------------|
D|-7-77777-77777-555-55555-55555---7-----7-----7---7-----7-----7-7-7-7--|
A|-5-55555-55555-----------------777-77777-77777-777-77777-77777-7-7-7--|
E|-------------------------------555-55555-55555-555-55555-55555-5-5-5--|

(0:18)
E|----------------------------------------------------------------------|
B|-----------------8-----8-----8---8------------------------------------|
G|-7-----7-----7-777-77777-77777-777------------------------------------|
D|-7-77777-77777-555-55555-55555-555------------------------------------|
A|-5-55555-55555--------------------------------------------------------|
E|----------------------------------------------------------------------|

(0:24)
E|----------------------------------------------------------------------|
B|-------8-8------------------------------------------------------------|
G|-----7-7-7-7-7-7--7---------------------------------------------------|
D|-7-7-5-5-5-7-7-7--7-7-777---------------------------------------------|
A|-7-7-------5-5-5--5-5-555---------------------------------------------|
E|-5-5------------------------------------------------------------------| x3

(0:32)
E|----------------------------------------------------------------------|
B|-------8-8------------------------------------------------------------|
G|-----7-7-7-7----------------------------------------------------------|
D|-7-7-5-5-5-7----------------------------------------------------------|
A|-7-7-------5----------------------------------------------------------|
E|-5-5------------------------------------------------------------------|

Verse:
(0:33)
E|----------------------------------------------------------------------|
B|----------8--8--------------------------------------------------------|
G|-7--------7--7--------------------------------------------------------|
D|-7--------5--------7--------------------------------------------------|
A|-5-----------------7--------------------------------------------------|
E|-------------------5--------------------------------------------------| x4

(0:51)
E|----------------------------------------------------------------------|
B|------8-8-8-----------------------------------------------------------|
G|-7-7--7-7-7-----------------------------------------------------------|
D|-7-7--5-5-5--7-7-7--7-------------------------------------------------|
A|-5-5---------7-7-7--7-7-777-------------------------------------------|
E|-------------5-5-5--5-5-555-------------------------------------------| x4

Chorus:
(0:59)
E|----------------------------------------------------------------------|
B|----------------8--8--8-----------------------------------------------|
G|---7--7--7--7-7-7--7--7-----------------------------------------------|
D|-7-7--7--7--5-5-5--5--5------7--7--7--7-------------------------------|
A|-5-5--5--5---------------7-7-7--7--7--7-------------------------------|
E|-------------------------5-5-5--5--5--5-------------------------------|

Fill #1:
(1:03)
E|----------------------------------------------------------------------|
B|----------------------------------------------------------------------|
G|-4p2p0----------------------------------------------------------------|
D|------4p2p0-----2-----------------------------------------------------|
A|-----------4p2p0------------------------------------------------------|
E|----------------------------------------------------------------------|

(1:04)
E|----------------------------------------------------------------------|
B|----------------8--8--8-----------------------------------------------|
G|---7--7--7--7-7-7--7--7-----------------------------------------------|
D|-7-7--7--7--5-5-5--5--5------7--7--7--7-------------------------------|
A|-5-5--5--5---------------7-7-7--7--7--7-------------------------------|
E|-------------------------5-5-5--5--5--5-------------------------------|

Fill #2:
(1:07)
E|----------------------------------------------------------------------|
B|----------------------------------------------------------------------|
G|-----------2h4p2-2----------------------------------------------------|
D|------0h2h4-----------------------------------------------------------|
A|-0h2h4----------------------------------------------------------------|
E|----------------------------------------------------------------------|

(1:08)
E|----------------------------------------------------------------------|
B|----------------8--8--8-----------------------------------------------|
G|---7--7--7--7-7-7--7--7-----------------------------------------------|
D|-7-7--7--7--5-5-5--5--5------7--7--7--7-------------------------------|
A|-5-5--5--5---------------7-7-7--7--7--7-------------------------------|
E|-------------------------5-5-5--5--5--5-------------------------------|


(1:11)
E|----------------------------------------------------------------------|
B|----------------------------------------------------------------------|
G|-4p2p0----------------------------------------------------------------|
D|------4p2p0-----2-----------------------------------------------------|
A|-----------4p2p0------------------------------------------------------|
E|----------------------------------------------------------------------|

(1:13)
E|----------------------------------------------------------------------|
B|----------------8--8--8-----------------------------------------------|
G|---7--7--7--7-7-7--7--7-----------------------------------------------|
D|-7-7--7--7--5-5-5--5--5------7--7--7--7-------------------------------|
A|-5-5--5--5---------------7-7-7--7--7--7-------------------------------|
E|-------------------------5-5-5--5--5--5-------------------------------|


(1:16)
E|----------------------------------------------------------------------|
B|----------------------------------------------------------------------|
G|-----------2h4p2-2----------------------------------------------------|
D|------0h2h4-----------------------------------------------------------|
A|-0h2h4----------------------------------------------------------------|
E|----------------------------------------------------------------------|

(1:17)
E|----------------------------------------------------------------------|
B|----------8-----------------------------------------------------------|
G|------7-7-7--7-7-7--7-------------------------------------------------|
D|---7--5-5-5--7-7-7--7--7-7-7------------------------------------------|
A|-7-7---------5-5-5--5--5-5-5------------------------------------------|
E|-5-5------------------------------------------------------------------|


(1:19)
E|----------------------------------------------------------------------|
B|----------8-----------------------------------------------------------|
G|------7-7-7--7-7-7----------------------------------------------------|
D|---7--5-5-5--7-7-7--7-7-7-7-7-----------------------------------------|
A|-7-7---------5-5-5--5-5-5-5-5-----------------------------------------|
E|-5-5------------------------------------------------------------------|

(1:21)
E|----------------------------------------------------------------------|
B|----------8-----------------------------------------------------------|
G|------7-7-7--7-7-7--7-------------------------------------------------|
D|---7--5-5-5--7-7-7--7--7-7-7------------------------------------------|
A|-7-7---------5-5-5--5--5-5-5------------------------------------------|
E|-5-5------------------------------------------------------------------|

(1:23)
E|----------------------------------------------------------------------|
B|-----8-8-8------------------------------------------------------------|
G|-----7-7-7-7----------------------------------------------------------|
D|-7-7-5-5-5-7----------------------------------------------------------|
A|-7-7-------5----------------------------------------------------------|
E|-5-5------------------------------------------------------------------|

Verse:
(1:25)
E|----------------------------------------------------------------------|
B|----------8--8--------------------------------------------------------|
G|-7--------7--7--------------------------------------------------------|
D|-7--------5--------7--------------------------------------------------|
A|-5-----------------7--------------------------------------------------|
E|-------------------5--------------------------------------------------| x4

(1:42)
E|----------------------------------------------------------------------|
B|------8-8-8-----------------------------------------------------------|
G|-7-7--7-7-7-----------------------------------------------------------|
D|-7-7--5-5-5--7-7-7--7-------------------------------------------------|
A|-5-5---------7-7-7--7-7-777-------------------------------------------|
E|-------------5-5-5--5-5-555-------------------------------------------| x4

Chorus:
(1:51)
E|----------------------------------------------------------------------|
B|----------------8--8--8-----------------------------------------------|
G|---7--7--7--7-7-7--7--7-----------------------------------------------|
D|-7-7--7--7--5-5-5--5--5------7--7--7--7-------------------------------|
A|-5-5--5--5---------------7-7-7--7--7--7-------------------------------|
E|-------------------------5-5-5--5--5--5-------------------------------|

Fill #1:
(1:54)
E|----------------------------------------------------------------------|
B|----------------------------------------------------------------------|
G|-4p2p0----------------------------------------------------------------|
D|------4p2p0-----2-----------------------------------------------------|
A|-----------4p2p0------------------------------------------------------|
E|----------------------------------------------------------------------|

(1:55)
E|----------------------------------------------------------------------|
B|----------------8--8--8-----------------------------------------------|
G|---7--7--7--7-7-7--7--7-----------------------------------------------|
D|-7-7--7--7--5-5-5--5--5------7--7--7--7-------------------------------|
A|-5-5--5--5---------------7-7-7--7--7--7-------------------------------|
E|-------------------------5-5-5--5--5--5-------------------------------|

Fill #2:
(1:58)
E|----------------------------------------------------------------------|
B|----------------------------------------------------------------------|
G|-----------2h4p2-2----------------------------------------------------|
D|------0h2h4-----------------------------------------------------------|
A|-0h2h4----------------------------------------------------------------|
E|----------------------------------------------------------------------|

(1:59)
E|----------------------------------------------------------------------|
B|----------------8--8--8-----------------------------------------------|
G|---7--7--7--7-7-7--7--7-----------------------------------------------|
D|-7-7--7--7--5-5-5--5--5------7--7--7--7-------------------------------|
A|-5-5--5--5---------------7-7-7--7--7--7-------------------------------|
E|-------------------------5-5-5--5--5--5-------------------------------|


(2:03)
E|----------------------------------------------------------------------|
B|----------------------------------------------------------------------|
G|-4p2p0----------------------------------------------------------------|
D|------4p2p0-----2-----------------------------------------------------|
A|-----------4p2p0------------------------------------------------------|
E|----------------------------------------------------------------------|

(2:04)
E|----------------------------------------------------------------------|
B|----------------8--8--8-----------------------------------------------|
G|---7--7--7--7-7-7--7--7-----------------------------------------------|
D|-7-7--7--7--5-5-5--5--5------7--7--7--7-------------------------------|
A|-5-5--5--5---------------7-7-7--7--7--7-------------------------------|
E|-------------------------5-5-5--5--5--5-------------------------------|


(2:07)
E|----------------------------------------------------------------------|
B|----------------------------------------------------------------------|
G|-----------2h4p2-2----------------------------------------------------|
D|------0h2h4-----------------------------------------------------------|
A|-0h2h4----------------------------------------------------------------|
E|----------------------------------------------------------------------|


(2:08)
E|----------------------------------------------------------------------|
B|----------8-----------------------------------------------------------|
G|------7-7-7--7-7-7--7-------------------------------------------------|
D|---7--5-5-5--7-7-7--7--7-7-7------------------------------------------|
A|-7-7---------5-5-5--5--5-5-5------------------------------------------|
E|-5-5------------------------------------------------------------------|


(2:10)
E|----------------------------------------------------------------------|
B|----------8-----------------------------------------------------------|
G|------7-7-7--7-7-7----------------------------------------------------|
D|---7--5-5-5--7-7-7--7-7-7-7-7-----------------------------------------|
A|-7-7---------5-5-5--5-5-5-5-5-----------------------------------------|
E|-5-5------------------------------------------------------------------|

(2:12)
E|----------------------------------------------------------------------|
B|----------8-----------------------------------------------------------|
G|------7-7-7--7-7-7--7-------------------------------------------------|
D|---7--5-5-5--7-7-7--7--7-7-7------------------------------------------|
A|-7-7---------5-5-5--5--5-5-5------------------------------------------|
E|-5-5------------------------------------------------------------------|

(2:15)
E|----------------------------------------------------------------------|
B|-----8-8-8------------------------------------------------------------|
G|-----7-7-7-7----------------------------------------------------------|
D|-7-7-5-5-5-7----------------------------------------------------------|
A|-7-7-------5----------------------------------------------------------|
E|-5-5------------------------------------------------------------------|

-------------------------------------------------------------------------
The fill found in the live version on "Where Quantity is Job #1":
(0:04)
E|----------------------------------------------------------------------|
B|----------------------------------------------------------------------|
G|-2p0---2p0---4p0---2p0------------------------------------------------|
D|----2p0---2p0---2p0---2p0---------------------------------------------|
A|----------------------------------------------------------------------|
E|----------------------------------------------------------------------|

AND YOU PIGS WILL PAY!

Questions, suggestions, comments? Drop me a line at: Cyco00Vision@hotmail.com
Tap to rate this tab
# A B C D E F G H I J K L M N O P Q R S T U V W X Y Z