Song name
# A B C D E F G H I J K L M N O P Q R S T U V W X Y Z

Propagandhi - Back To The Motor League tab

------------------------------------------------------------------------------- 
                                BACK TO THE MOTOR LEAGUE - Propagandhi 
------------------------------------------------------------------------------- 
by:SOAD SK8ER

* = let ring > = strum 6-8 times >> = strum 12-16 times 

Intro 
G|----------------------------| 
D|----------------------------| 
A|-4-4--4--4-4--4-4--4--4*----| 
E|----------------------------| 

Riff 1 
G|-------------------------------------------------| 
D|------------------------------------9------------| 
A|-9-9-9--7-7-7-7--4>-9-9-9--7---9-7---------------| 
E|-------------------------------------------------| 

G|-------------------------------------------------| 
D|--------------------------------------9----------| 
A|-4>-9-9-9--7-7-7-7--4>-9-9-9--7---9-7------------| 
E|-------------------------------------------------| 

Riff 2 
G|-------------------------------------------------| 
D|-------------------------------------------------| 
A|-4*-4-4--7-7-7-6-7-7-7--7-7-7-6-7-7-7--2>--9>----| 
E|-------------------------------------------------| 

G|-----------------------------------------------------| 
D|------------------------------------------7-----9----| 
A|-4>-7-7-7-6-7-7-7--7-7-7-6-7-7-7--2>--9-7---9-7------| 
E|-----------------------------------------------------| 

G|---------------------------------------------| 
D|---------------------------------------------| 
A|-4>--7-7-7-6-7-7-7--7-7-7-6-7-7-7--2>--9>----| 
E|---------------------------------------------| 

"Oh my God" 
G|-------------------| 
D|-------------------| 
A|-2h4>-4p2>-2p1>----| 
E|-------------------| 

Riff 4 (x4) 
G|------------------------------------------------| 
D|------------------2---2------------------2---2-4| 
A|-4-4-4-4-4--2---2---2--0-0-0-0-0--2---2---------| 
E|------------------------------------------------| 

"Never ceases to amaze" 
G|---------------------------------------------| 
D|---------------------------------------------| 
A|-4*--7-7-7-6-7-7-7--7-7-7-6-7-7-7--2>--9>----| 
E|---------------------------------------------| 

G|------------------------------------| 
D|------------------------------------| 
A|-4>-7-7-7-6-7-7-7--7-7-7-6-7-7-7----| 
E|------------------------------------| 

Riff 5 (x2) 
G|---------------------------| 
D|---------------------------| 
A|-2h4>--4p2>--2p1>--1p0>----| 
E|---------------------------| 

Bridge 
G|------------------------------------------------------| 
D|------------------------7-6---------------------------| 
A|-4*-2*-1*-0*--2h4*-2*-1*-----7--0*--2-4---------------| 
E|------------------------------------------------------| 

"What have, we here?" 
G|------------------------------------------------------| 
D|------------------------2-4-6-7-6---------------------| 
A|-pause-2h4/0-pause-2-4-----------9-7-2--2h4/--0*--2>>-| 
E|------------------------------------------------------| 

Under Guitar Solo 
G|-----------------------------------------------| 
D|-------------2---2---------------------2--2-4--| 
A|-4-4-pause-2---2---2--0-0-0-0-0--2---2---------| 
E|-----------------------------------------------| 

G|-----------------------------------------------| 
D|---------------2---2--------------------2--2-4-| 
A|-4-4-4-4-4--2---2---2--0-0-0-0-0--2---2--------| 
E|-----------------------------------------------| 

Riff 5 (x2) 

Outro 
G|---------------------| 
D|---------------------| 
A|-4-2*--4-0*--2-4/----| 
E|---------------------| 
Tap to rate this tab
 
# A B C D E F G H I J K L M N O P Q R S T U V W X Y Z