Song name
# A B C D E F G H I J K L M N O P Q R S T U V W X Y Z

Propagandhi - Superbowl Patriot Xxxvi Enter The Mendicant tab

--------------------------------------------------------------------------
     SUPERBOWL PATRIOT XXXVI (ENTER THE MENDICANT) - propagandhi
--------------------------------------------------------------------------

Band: Propagandhi
Album: Potemkin City Limits (2005, G7 Welcoming Committee)
Song: Superbowl Patriot XXXVI (Enter the Mendicant)

Tabbed by Kyle T.
Contact: pants_me@hotmail.com
Site: www.wqhosting.com/~ohpkyle/

Standard tuning (EADGbe)

Legend:

pm... - Palm mute
  x   - Dead note
  ~   - Let ring
  %   - Rest
  /   - Slide up
  \   - Slide down
  h   - Hammer on
 ()   - Slide to

---

Note: Here's a nice song to sing with the family on a Sunday morning. 

---

Chords used:

   F#5  B5  C5  E5  
e|------------------|
b|------------------|
G|------4---5---9---|
D|--4---4---5---9---|
A|--4---2---3---7---|
E|--2---------------|

Song:

e|-------------------|-------------------|-------------------|-------------------|
b|-------------------|-------------------|-------------------|-------------------|
G|-5-----5-----5-----|---------5-----5---|---5-----5-5-5-5-5-|-----5-----5-------|
D|-5-4-4-5-4-4-5-4-4-|-4-4-4-4-5-4-4-5-4-|-4-5-4-4-5-5-5-5-5-|-4-4-5-4-4-5-4-4-4-|
A|-3-4-4-3-4-4-3-4-4-|-4-4-4-4-3-4-4-3-4-|-4-3-4-4-3-3-3-3-3-|-4-4-3-4-4-3-4-4-4-|
E|---2-2---2-2---2-2-|-2-2-2-2---2-2---2-|-2---2-2-----------|-2-2---2-2---2-2-2-|

Superbowl patriots cheer half-time propaganda, fake titties, tooting trumpets,
"Freedom" is in lights and shitting itself out of Post-Hippy "Call me Sir" Paul
McCartney's

e|-------------------|-------------------|-------------------|-------------------|
b|-------------------|-------------------|-------------------|-------------------|
G|-----5-----5-----5-|-----5-5-5-5---5---|-6-6-5---5-5-5---5-|-5-5-5---6-6-7-7-7-|
D|-4-4-5-4-4-5-4-4-5-|-4-4-5-5-5-5---5-4-|-6-6-5-4-5-5-5-4-5-|-5-5-5-4-6-6-7-7-7-|
A|-4-4-3-4-4-3-4-4-3-|-4-4-3-3-3-3---3-4-|-4-4-3-4-3-3-3-4-3-|-3-3-3-4-4-4-5-5-5-|
E|-2-2---2-2---2-2---|-2-2-------------2-|-------2-------2---|-------2-----------|

multi-millionaire fucking-mouth. Machine guns raised. Kegs secure. Beers held high!

e|-------------------|-------------------|-------------------|-------------------|
b|-------------------|-------------------|-------------------|-------------------|
G|-7-7-5--5-5-5\4-4/-|(9)--9~~~----5~~~--|-4~~~---9~~~----5~~|~--4~~~--5-----5---|
D|-7-7-5--5-5-5\4-4/-|(9)--9~~~----5~~~--|-4~~~---9~~~----5~~|~--4~~~--5-4-4-5-4-|
A|-5-5-3--3-3-3\2-2/-|(7)--7~~~----3~~~--|-2~~~---7~~~----3~~|~--2~~~--3-4-4-3-4-|
E|-------------------|-------------------|-------------------|-----------2-2---2-|

                           The liar's in the house. Bono's in the house. We're doomed!

e|-------------------|-------------------|-------------------|
b|-------------------|-------------------|-------------------|
G|---5-----5-----5---|---5-----5~~~~-----|-------------------|
D|-4-5-4-4-5-4-4-5-4-|-4-5-4-4-5~~~~-----|-4-4\--------------|
A|-4-3-4-4-3-4-4-3-4-|-4-3-4-4-3~~~~-----|-4-4\--------------|
E|-2---2-2---2-2---2-|-2---2-2-----------|-2-2\--------------|

Fucking doomed! Fucking doomed! Fucking doomed! Fucking doomed! Fucking doomed!
Fucking Doomed! Aaaarrrrgh.
Tap to rate this tab
 
# A B C D E F G H I J K L M N O P Q R S T U V W X Y Z