Song name
# A B C D E F G H I J K L M N O P Q R S T U V W X Y Z

Propagandhi - Government Cartoons tab

e|-------------------------------------|
B|-------------------------------------|
G|-------------------------------------|
D|-8-----------------------------------|
A|-8-----------------------------------|
E|-6-----------------------------------|

Intro:

e|-------------------------------------|
B|-------------------------------------|
G|---8-x-x-12-x-x-x-x---8-x-x-12/8~x-x-|
D|-8-8-x-x-12-x-x-x-x-8-8-x-x-12/8~x-x-|
A|-8-6-x-x-10-x-x-x-x-8-6-x-x-10/6~x-x-|
E|-6------------------6----------------|

e|-------------------------------------|
B|-------------------------------------|
G|---8-x-x-12-x-x-x-x---8-x-x-8/12~x-x-|
D|-8-8-x-x-12-x-x-x-x-8-8-x-x-8/12~x-x-|
A|-8-6-x-x-10-x-x-x-x-8-6-x-x-6/12~x-x-|
E|-6------------------6----------------|

e|-------------------------------------|
B|-------------------------------------|
G|---8-x-x-12-x-x-x-x---8-x-x-12/8~x-x-|
D|-8-8-x-x-12-x-x-x-x-8-8-x-x-12/8~x-x-|
A|-8-6-x-x-10-x-x-x-x-8-6-x-x-10/6~x-x-|
E|-6------------------6----------------|

e|-------------------------------------|
B|-------------------------------------|
G|---8-8-8-8-8-8-8-8-x-x-x-x-x-x-x-----|
D|-8-8-8-8-8-8-8-8-8-x-x-x-x-x-x-x-----|
A|-8-6-6-6-6-6-6-6-6-x-x-x-x-x-x-x-----|
E|-6-----------------------------------|


e|-------------------------------------|
B|-------------------------------------|
G|---8-x-x-12~~~~-x-x---8-x-x-12/8~~-x-|
D|-8-8-x-x-12~~~~-x-x-8-8-x-x-12/8~~-x-|
A|-8-6-x-x-10~~~~-x-x-8-6-x-x-10/6~~-x-|
E|-6------------------6----------------|

e|-------------------------------------|
B|-------------------------------------|
G|---8-x-x-12~~~~-x-x---8-x-x-8/12~~-x-|
D|-8-8-x-x-12~~~~-x-x-8-8-x-x-8/12~~-x-|
A|-8-6-x-x-10~~~~-x-x-8-6-x-x-6/12~~-x-|
E|-6------------------6----------------|

e|-------------------------------------|
B|-------------------------------------|
G|---8-x-x-12~~~~-x-x---8-x-x-12/8~~-x-|
D|-8-8-x-x-12~~~~-x-x-8-8-x-x-12/8~~-x-|
A|-8-6-x-x-10~~~~-x-x-8-6-x-x-10/6~~-x-|
E|-6------------------6----------------|

e|-------------------------------------|
B|-------------------------------------|
G|---8-8-8-8-8-8-8-8-x-x-x-x-x-x-x-----|
D|-8-8-8-8-8-8-8-8-8-x-x-x-x-x-x-x-----|
A|-8-6-6-6-6-6-6-6-6-x-x-x-x-x-x-x-----|
E|-6-----------------------------------|

Bridge:

e|-------------------------------------|
B|-------------------------------------|
G|--8-8-8-8----------------------------|
D|--8-8-8-8--8-8-8-8--5-5-5-5--6-6-6-6-|
A|-06-6-6-6--8-8-8-8--5-5-5-5--6-6-6-6-|
E|----------06-6-6-6-03-3-3-3-04-4-4-4-|\
                                         x2
e|-------------------------------------|/
B|-------------------------------------|
G|--8-8-8-8----------------------------|
D|--8-8-8-8--8-8-8-8--5-5-5-5--6-------|
A|-06-6-6-6--8-8-8-8--5-5-5-5--6-------|
E|----------06-6-6-6-03-3-3-3-04-------|

Verse 1:

e|-------------------------------------|
B|-------------------------------------|
G|------8-8-7-7-7-7--6-6-6-6-----------|
D|--8-8-8-8-8-8-8-8--6-6-6-6--6-6-5-5--| x8
A|--8-8-6-6-5-5-5-5-04-4-4-4--6-6-5-5--|
E|-06-6----------------------04-4-3-3--|

Bridge:

e|-------------------------------------|
B|-------------------------------------|
G|-8-----------------------------------|
D|-8--------8--------5---5----6---6----|
A|-6--------8--------5---5----6---6----|
E|----------6--------3---3----4---4----|

e|-------------------------------------|
B|-------------------------------------|
G|-8-7-8-------------------------------|
D|-8-8-8----8---8----5---5-5--6--------|
A|-6-6-6----8---8----5---5-5--6--------|
E|----------6---6----3---3-3--4--------|

Chorus:

e|-------------------------|-------------------------|
B|-------------------------|-------------------------|
G|-------------------------|-------------------------|
D|---5---------------------|-------------------------| x3
A|-6---6---8-----5-----6---|-6-5-6---8-----5-----6---|
E|-------6---6-3---3-4---4-|-------6---6-3---3-4---4-|

e|-------------------------|-------------------------|
B|-------------------------|-------------------------|
G|-------------------------|-------------------------|
D|---5---------------------|-------------------------| x1
A|-6---6---8-----5-----6---|-6-5-6---8-----5---------|
E|-------6---6-3---3-4---4-|-------6---6-3---3-4-----|

Bridge:

e|-------------------------------------|
B|-------------------------------------|
G|------8-8-7-7-7-7--6-6-6-6-----------|
D|--8-8-8-8-8-8-8-8--6-6-6-6--6-6-5-5--|
A|--8-8-6-6-5-5-5-5-04-4-4-4--6-6-5-5--|
E|-06-6----------------------04-4-3-3--|

e|-------------------------------------|
B|-------------------------------------|
G|------8-8-7-7-7-7--6-6-6-6-----------|
D|--8-8-8-8-8-8-8-8--6-6-6-6--6--------|
A|--8-8-6-6-5-5-5-5-04-4-4-4--6--------|
E|-06-6----------------------04--------|

Verse 2:

e|-------------------------------------|
B|-------------------------------------|
G|------8-8-7-7-7-7--6-----------------|
D|--8-8-8-8-8-8-8-8--6--------6-6-5-5--| x1
A|--8-8-6-6-5-5-5-5--4--------6-6-5-5--|
E|-06-6----------------------04-4-3-3--|

e|-------------------------------------|
B|-------------------------------------|
G|------8-8-7-7-7-7--6-6-6-6-----------|
D|--8-8-8-8-8-8-8-8--6-6-6-6--6-6-5-5--| x7
A|--8-8-6-6-5-5-5-5-04-4-4-4--6-6-5-5--|
E|-06-6----------------------04-4-3-3--|

Bridge:

e|-------------------------------------|
B|-------------------------------------|
G|-8-----------------------------------|
D|-8--------8--------5---5----6---6----|
A|-6--------8--------5---5----6---6----|
E|----------6--------3---3----4---4----|

e|-------------------------------------|
B|-------------------------------------|
G|-8-7-8-------------------------------|
D|-8-8-8----8---8----5---5-5--6--------|
A|-6-6-6----8---8----5---5-5--6--------|
E|----------6---6----3---3-3--4--------|

Chorus:

e|-------------------------|-------------------------|
B|-------------------------|-------------------------|
G|-------------------------|-------------------------|
D|---5---------------------|-------------------------| x3
A|-6---6---8-----5-----6---|-6-5-6---8-----5-----6---|
E|-------6---6-3---3-4---4-|-------6---6-3---3-4---4-|

e|-------------------------|-------------------------|
B|-------------------------|-------------------------|
G|-------------------------|-------------------------|
D|---5---------------------|-------------------------| x1
A|-6---6---8-----5-----6---|-6-5-6---8-----5---------|
E|-------6---6-3---3-4---4-|-------6---6-3---3-4-----|

Verse 1:
When Fred and Barney Rubble
indoctrinate me in my own home.
And try to tell me that Mr. Slate's got it rough
on his corporate throne.
Yeah, Mr. Slate, boys,
has bigger problems than we've ever known,
And a man like deserves respect
and your respect alone.

Chorus:
Indoctrination,
to keep you in your place.
Brainwashing,
to enslave the human race.
They'll get you when you're young
and forever they embrace.
A government self-portrait,
an evil we must face

(and replace).

Verse 2:
You've convinced me that a working class stiff
(but a proud one!) is what i am.
And that for minimum wage in this state-run cage that should always do the best that i fucking
can.
just do what I'm told till I'm to old to move my broken, twisted carcass out of
bed.
Don't take a stand, just take commands
until i'm dead.
Tap to rate this tab
# A B C D E F G H I J K L M N O P Q R S T U V W X Y Z