Song name
# A B C D E F G H I J K L M N O P Q R S T U V W X Y Z

Propagandhi - And We Thought Nation States Were A Bad Idea tab

Propagandhi "...and we thought nation states were a bad idea."

The screen I'm looking has this tab all bunched up. If someone knows how to fix this, 
me up.

  | = strong chops    % = pause   x/y= half time chord change

E----------------------------------------------------------------------------------------|
B----------------------------------------------------------------------------------------|
G---3-3-3------------------------------------------------------------7/8-8--7/8-8--------|
D---3-3-3---------0------3|-3|-3|-3|---%---5-5-4-5-4-5-4---7/8-8--7/8-8------------------|
A---1-1-1-0-1-3----1---3|-3|-3|-3|---%---5-5-4-5-4-5-4---5/6-6--5/6-6--------------------|
E---------------------------1|-1|-1|-1|---%---3-3-2-3-2-3-2------------------------------|


E---------------------------------------------------------------------------|
B---------------------------------------------------------------------------|
G---3-3--------------------------------------------------8-8-8-8-7-5--------|
D---3-3----------0-----3|-3|-4|-4|---5-5-5-5-4-3--8-8-8-8-7-5---------------|
A---1-1--0-1-3----1--3|-3|-4|-4|---5-5-5-5-4-3--6-6-6-6-5-3-----------------|
E-------------------------1|-1|-2|-2|---3-3-3-3-2-1-------------------------|


E-----------------------------------------------------------------------------|
B-----------------------------------------------------------------------------|
G---3--------------------------5-5----------------------7/8-8--7/8-8----------|
D---3-----------0-----3|-3|--5-5--5-5-4-5-4-5-4--7/8-8--7/8-8-----------------|
A---1--0-1-3-----1--3|-3|--3-3--5-5-4-5-4-5-4--5/6-6--5/6-6-------------------|
E-----------------------1|-1|--------3-3-2-3-2-3-2----------------------------|


E-----------------------------------------------------------------------------|
B-----------------------------------------------------------------------------|
G---3-3----------------------------------------------------8-8-8-8-7-5--------|
D---3-3-----------0------3|-3|-4|-4|---5-5-5-5-4-3--8-8-8-8-7-5---------------|
A---1-1--0-1-3-----1---3|-3|-4|-4|---5-5-5-5-4-3--6-6-6-6-5-3-----------------|
E--------------------------1|-1|-2|-2|---3-3-3-3-2-1--------------------------|

   \ PM / = Palm Mute   * = play note/chord 13 times  # = play note/chord 6 times

                                       "Publicly subsidized! Privately profitable!....."

E------------------------------------------------------------------------------------------------------------------------------|
B-----------*-----------------*----------------*-------------------------------------------------------------#--------------#--|
G---3------3--------3-------3-------3------3--------------*--------------#---------------#------5------5------5------5---------|
D---3------3--------3-------3-------3------3------3------3-------5------5-------5------5------5------5------5------5-----------|
A---1------1--------1-------1-------1------1------3------3-------5------5-------5------5------3------3------3------3-----------|
E------------------------------------------------------1------1------3-------3-------3------3----------------------------------|
         \ PM /         \ PM /        \ PM /       \ PM /       \ PM /        \ PM /     
\ PM /      \ PM /

E---
B------------*-----------------*---------|
G---3-------3-------3-------3------------|
D---3-------3-------3-------3------------|
A---1-------1-------1-------1------------|
E----------------------------------------|
           \ PM /       \ PM /

  x............. = let note/chord ring

E-------------------------------------------------------------------------------------------------------------------------|
B---------------------------------------------------------------------------------------------------*------------------*--|
G---3....................------------------------------------------5.....................3-------3--------3-------3-------|
D---3....................3.......................5................5.....................3-------3--------3-------3--------|
A---1....................3.......................5................3.....................1-------1--------1-------1--------|
E-------------------------1.......................3................-------------------------------------------------------|
                                                                                         
       \ PM /         \ PM /

     " And I'm just a kid...."

E-------------------------------------------------------------------------------------|
B-------------------------------------------------------------------------------------|
G---3-3------------------8-8-8-8-8----------------------------------------------------|
D---3-3----------0-------8-8-8-8-8---5-5-5--5-------------3-3-3-3-3-3-----------------|
A---1-1--0-1-3-----1---6-6-6-6-6---5-5-5------5---------3-3-3-3-3-3-------------------|
E-------------------------------------------3-3-3----------3----1-1-1-1-1-1-----------|


E--------------------------------------------------------------------------------------|
B--------------------------------------------------------------------------------------|
G---3-3--------------------8-8-8-8-8---3-3-3-3-3-3----5-5-5---7-7-7--------------------|
D---3-3-----------0-------8-8-8-8-8---3-3-3-3-3-3----5-5-5---7-7-7---------------------|
A---1-1--0-1-3------1---6-6-6-6-6---1-1-1-1-1-1----3-3-3---5-5-5-----------------------|
E--------------------------------------------------------------------------------------|

E-------------------------------------------------------------------------------------|
B-------------------------------------------------------------------------------------|
G---3-3------------------8-8-8-8-8----------------------------------------------------|
D---3-3----------0-------8-8-8-8-8---5-5-5--5-------------3-3-3-3-3-3-----------------|
A---1-1--0-1-3-----1---6-6-6-6-6---5-5-5------5---------3-3-3-3-3-3-------------------|
E-------------------------------------------3-3-3----------3----1-1-1-1-1-1-----------|


E------------------------------------------------------------------------|
B------------------------------------------------------------------------|
G---3-3--------------------8-8-8-8-8---3-3-3-3-3-3----5-5-5---7-7-7---8--|...................
D---3-3-----------0-------8-8-8-8-8---3-3-3-3-3-3----5-5-5---7-7-7----8--|..................
A---1-1--0-1-3------1---6-6-6-6-6---1-1-1-1-1-1----3-3-3---5-5-5----6----|..................
E------------------------------------------------------------------------|

E---------------------------------|
B---*----*---*--------------------|
G---3---5---8---#---#-------------|         < Play riff 4 times
D---3---5---8---3---4-------------|
A---1---3---6---3---4-------------|
E------------------1---2----------|

E-------------------------------------------------------------------------------------|
B-------------------------------------------------------------------------------------|
G---3-3------------------8-8-8-8-8----------------------------------------------------|
D---3-3----------0-------8-8-8-8-8---5-5-5--5-------------3-3-3-3-3-3-----------------|
A---1-1--0-1-3-----1---6-6-6-6-6---5-5-5------5---------3-3-3-3-3-3-------------------|
E-------------------------------------------3-3-3----------3----1-1-1-1-1-1-----------|


E--------------------------------------------------------------------------------------|
B--------------------------------------------------------------------------------------|
G---3-3--------------------8-8-8-8-8---3-3-3-3-3-3----5-5-5---7-7-7--------------------|
D---3-3-----------0-------8-8-8-8-8---3-3-3-3-3-3----5-5-5---7-7-7---------------------|
A---1-1--0-1-3------1---6-6-6-6-6---1-1-1-1-1-1----3-3-3---5-5-5-----------------------|
E--------------------------------------------------------------------------------------|

E-----------------------------------------------------------------------------|
B-----------------------------------------------------------------------------|
G---3--------------------------5-5----------------------7/8-8--7/8-8----------|
D---3-----------0-----3|-3|--5-5--5-5-4-5-4-5-4--7/8-8--7/8-8-----------------|
A---1--0-1-3-----1--3|-3|--3-3--5-5-4-5-4-5-4--5/6-6--5/6-6-------------------|
E-----------------------1|-1|--------3-3-2-3-2-3-2----------------------------|


E-----------------------------------------------------------------------------|
B-----------------------------------------------------------------------------|
G---3-3----------------------------------------------------8-8-8-8-7-5--------|
D---3-3-----------0------3|-3|-4|-4|---5-5-5-5-4-3--8-8-8-8-7-5---------------|
A---1-1--0-1-3-----1---3|-3|-4|-4|---5-5-5-5-4-3--6-6-6-6-5-3-----------------|
E--------------------------1|-1|-2|-2|---3-3-3-3-2-1--------------------------|

E---------------------------------------------|
B---------------------------------------------|
G-----------------------8-8-8-8--7--5---------|
D-----------------------8-8-8-8--7--5---------|
A---5-5-5-5--4--3---6-6-6-6--5--3-------------|
E---3-3-3-3--2--1-----------------------------|

E---------------------------------------------|
B---------------------------------------------|
G-----------------------8-8-8-8--7--5---------|
D-----------------------8-8-8-8--7--5---------|
A---5-5-5-5--4--3---6-6-6-6--5--3-------------|
E---3-3-3-3--2--1-----------------------------|

E----------|
B----------|
G---3------|
D---3------|
A---1------|
E----------|
Tap to rate this tab
# A B C D E F G H I J K L M N O P Q R S T U V W X Y Z