Song name
# A B C D E F G H I J K L M N O P Q R S T U V W X Y Z

Prophilax - Dora In Poi Si Chiavera chords

Highlighted       Show chord diagrams
-------------------------------------------------------------------------------
	                     DORA IN POI SI CHIAVERA' - PROPHILAX
-------------------------------------------------------------------------------

Tabbed by: Bubu7 (con un contributo dell'utente Think Prophilax del Prophilax Fancul Forum)


Tuning: EADGBe (standard)


Visto che la versione studio dopo ogni strofa ripete il ritornello due volte con 
voci sovrapposte, mi sono basato su quella di AnaLive, che lo ripete una volta sola.


Nella strofa quando la canzone fa F#m - G - Bm - D vi consiglio di fare tutti gli 
accordi col barre'.



Introduzione


   C          G          D          A          C          G          D

e|-0----------3----------2----------0--0-------0----------3----------2-------|
B|-1--------1-3--------3-3--------3-2----2-----1--------1-3--------3-3-------|
G|-0------0---0------0---2------2---2------2---0------0---0------0---2-----2-|
D|-2----2-----0----0-----0----0-----2--------2-2----2-----0----0-----0---0---|
A|-3--3-------2--2-------0--0-------0----------3--3-------2--2-------0-0-----|
E|-0----------3----------0----------0----------0----------3----------0-------|

     A

e|---0--0--------|
B|-3-2----2------|
G|---2------2----|
D|---2--------2--|
A|---0-----------|
E|---0-----------|



       C           G            D                     A

Se ti senti sconsolato, se una sega ti sei appena sparato


      F#m       G         Bm               D

E non vedi una fica da 20 anni e anche di piu'


        C                    G                 D                           A

Stai seduto sulla tazza del cesso, con un giornale porno e il cazzo ormai lesso


            F#m           G               Bm           D

Ma stai tranquillo amico mio, che questa storia cambiera'




 G       D            C            D                G

D'ora in poi si chiavera'... perche' Dora ce la da'...


         C            D               C    D      G

D'ora in poi si chiavera'... la nostra vita cambiera'!





       C                    G           D                    A

Se la figa tu non sai cosa sia, se ti tromberesti anche mia zia


      F#m                      G                 Bm              D

Se ti arrapi anche con Sandra Milo davvero alla frutta tu devi star


       C                    G            D                     A

Se la notte sogni solo inculate, se ti svegli con le palle sudate


          F#m                G           Bm              D

Se il tuo motto e' "me pijo tutto", caro amico, io ti diro':




 G       D            C            D                G

Dora in poi si chiavera'... perché Dora ce la da'...


         C            D           C    D      G

Dora in poi si chiavera'... la dovremo ringrazia'! (...grazie, Dora!)



C G D A

F#m G Bm D

C G D A

F#m G Bm D

G D C D

G C D

C D



G       D            C            D                G

Dora in poi si chiavera'... perché Dora ce la da'...

         C            D       C    D 

Dora in poi si chiavera'...


 G       D             C           D                G

Dora in poi si chiavera'... perche' Dora ce la da'...


         C            D           C    D      G

Dora in poi si chiavera'... la dovremo ringrazia'!


...Dora... grazie.



Bella pe' voi!

Tap to rate this tab
 
# A B C D E F G H I J K L M N O P Q R S T U V W X Y Z