Song name
# A B C D E F G H I J K L M N O P Q R S T U V W X Y Z

Prostitute Disfigurement - The Corpse Garden tab

Prostitute Disfigurement
Left In Grisly Fashion
The Corpse Garden

Copyright (c)  Neurotic Records 2005
Version 1.1 - 24.11.2006

Transcribed By: Yaniv Dekel
Email:          lickywebster@yahoo.com


.  - palm mute           /  - slide up to
\  - slide down to       ~  - vibrato
h  - hammer on           b  - Bend
p  - pull off            Suffixes for bend
t  - tap                 f  - full bend    h - half bend
ph - pinched harmonic    q  - quarter bend t - tap bend
*  - see comment         ^  - Hold bend    r release bend
x  - Stuccatto           ~  - vibrato bend
,  - slight palm mute    () - ghost note, sustained note
"  - tremolo note        <> - Trill

* @=10

Tuning is D standard

Riff A x8        |1-3, 5-7                  |4, 8
|----------------|--------------------------|--------------------------|
|----------------|--------------------------|--------------------------|
|----------------|--------------------------|--------------------------|
|----------------|--------------------------|-----------3333-----------|
|----------------|--------------------------|-2222-1111----------------|
|-6666-3333-0000-|-1111-3333-0000-8888-0000-|----------------1111-4444-|

Passage
  |gtr1 (Riff B)
  |-------------------------------------------------------------|
  |-------------------------------------------------------------|
  |-------------------------------------------------------------|
  |-------------------------------------------------------------|
  |-----------7777-----------4444------6666-7777-8887\555-------|
  |-0000-6666------5500-3333------0000-6666---------------4444--|
  |
  |gtr2
  |-------------------------------------------------------------|
  |-------------------------------------------------------------|
  |-------------------------------------------------------------|
  |-2-----------------------------------------------------------|
  |-2-----------------------------------------------------------|
  |-0-----------------------------------------------------------|

  |gtr1 (Riff B)
  |-------------------------------------------------------------|
  |-------------------------------------------------------------|
  |-------------------------------------------------------------|
  |-------------------------------------------------------------|
  |-----------7777-----------4444------6666-7777-8887\555-------|
  |-0000-6666------5500-3333------0000-6666---------------4444--|
  |
  |gtr2
  |-------------------------------------------------------------|
  |-------------------------------------------------------------|
  |-------------------------------------------------------------|
  |-2---------------------------------------9999-@@@9\777-------|
  |-2-----------------------------------------------------6-----|
  |-0-----------------------------------------------------4-----|

Riff B x4

Riff C x4
|----------------------------------------------------------|
|----------------------------------------------------------|
|----------------------------------------------------------|
|------9999----------9999-88888888------77777777-55555555--|
|------7777-@@@@@@@@-7777-66666666-9999-55555555-33333333--|
|-0000------88888888---------------7777--------------------|

Riff B x2

Riff D x2
|-----------------------------------------------------------------|
|-----------------------------------------------------------------|
|-----------------------------------------------------------------|
|-----------------------------------------------------------------|
|-----------------------------------------------------------------|
|-0000-6666-9999-0000-3333-6666-0000-6666-9999-@@@@-6666-3333-----|
  .... .... .... .... .... .... .... .... .... .... .... ....

Riff C x4
Riff A x8

Riff E x4
|--------------------------------------------|
|--------------------------------------------|
|--------------------------------------------|
|----------T----------T----------------------|
|-2-/-(7)--13p10p7h10-13---11111111-00000000-|
|-0------------------------33333333-11110000-|

Riff F x4
|-------------------------------------------------------------|
|-------------------------------------------------------------|
|-------------------------------------------------------------|
|-------------------------------------------------4--5--------|
|-5-5-5-5-5-5-6-6-6-6-6-6-2-2-2-2-2-2-3-3-3-3-3-3-2--3--3--6--|
|-3-3-3-3-3-3-4-4-4-4-4-4-0-0-0-0-0-0-1-1-1-1-1-1-------1--4--|
  . . . . . . . . . . . . . . . . . . . . . . . .

Riff E x4
Riff F x4
Riff B x4
Riff C x4
Riff A x8
Riff F x4

Finally, both guitars play this over Riff F until fade out

|L       x3|        x3|        x3|         x7|
|----------|----------|----------|-----------|
|----------|----------|----------|-----------|
|-15p14p12-|-16p15p13-|----------|-----------|
|----------|----------|-17p16p14-|-18p17p15--|
|----------|----------|----------|-----------|
|----------|----------|----------|-----------|
|          |          |          |           |
|R         |          |          |           |
|----------|----------|----------|-----------|
|-18p17p15-|-19p18p16-|----------|-----------|
|----------|----------|-19p18p16-|-20p19p17--|
|----------|----------|----------|-----------|
|----------|----------|----------|-----------|
|----------|----------|----------|-----------|


END
Tap to rate this tab
# A B C D E F G H I J K L M N O P Q R S T U V W X Y Z