Song name
# A B C D E F G H I J K L M N O P Q R S T U V W X Y Z

Protest The Hero - Goddess Gagged tab

-------------------------------------------------------------------------------
			     Goddess Gagged intro - Protest the Hero
-------------------------------------------------------------------------------
I got this from a live video

Tuning: I used standard for this one

e|---------------------------------------------------------------------------|
B|---------------------------------------------16----------------------------|
G|12-------------------------13~----------16------15-13----------------------|
D|----13----------13--15--13------17--15----------------17-15-13-------------|
A|-------13--10--------------------------------------------------------------|
E|---------------------------------------------------------------------------|

Not too sure about the ending, but this is what i got. i hope i didnt butcher it too much :P
Tap to rate this tab
# A B C D E F G H I J K L M N O P Q R S T U V W X Y Z