Song name
# A B C D E F G H I J K L M N O P Q R S T U V W X Y Z

Protest The Hero - Bone Marrow tab

Tuning: Half Step down(E flat)

H=Hammer on
P=Pull off

     H  P      H  P      H      H  H  P        H  P      H  P      H  P
eb|----------------------------------------------------------------------------|
Bb|-13-15-13--11-13-11--10-11----------------13-15-13--11-13-11--10-11-10------|
Gb|--------------------------12-------------------------------------------12---|
Db|----------------------------11-12-14-11-------------------------------------|
Ab|----------------------------------------------------------------------------|
Eb|----------------------------------------------------------------------------|
      H  H  P
eb|-12-13-15-12--|  Repeat 4 times
Bb|--------------|
Gb|--------------|
Db|--------------|
Ab|--------------|
Eb|--------------|

Pre-Verse Sweep. On 4th repeation, play this instead of the 12-13-15-12

eb|-12-9---------15-12------------|
Bb|-----10----10------13------13--|
Gb|-------9--9----------12--12----|
Db|--------11-------------14------|
Ab|-------------------------------|
Eb|-------------------------------|
Tap to rate this tab
# A B C D E F G H I J K L M N O P Q R S T U V W X Y Z