Song name
# A B C D E F G H I J K L M N O P Q R S T U V W X Y Z

Protest The Hero - Spoils tab

Help us improve GuitareTab! Take a short survey!
-------------------------------------------------------------------------------
			     Spoils Intro - Protest The Hero
-------------------------------------------------------------------------------
Tabbed by: Epic Noob
Email: kaiser_wilhelm@hotmail.co.uk

Tuning: Standard

I don't think this is 100%, especially since the real thing will probably
be in some bizarre drop tuning, but there's no other tab to compare it to 
so it'll have to do! My second tab, rate and comment plox. n_n

Intro
e|16----------------16--------------16----------------14--------- |
B|------14-13-------------14-13~----------14-13-------------12-11~|
G|---13-------15-13----13--------------13-------15-13----11-------|
D|----------------------------------------------------------------|
A|----------------------------------------------------------------|
E|----------------- ----------------------------------------------|

e|16----------------16--------------16----------------14----------------|
B|------14-13-------------14-13~----------14-13-------------12-11-------|
G|---13-------15-13----13--------------13-------15-13----11-------13-11~|
D|----------------------------------------------------------------------|
A|----------------------------------------------------------------------|
E|----------------- ----------------------------------------------------|

e|------------------16---------------------------|
B|---------------16------------------------------|
G|---17-15----------------18\17-15---------------|
D|---------15/16-------18----------15-------13---|
A|------------------------------------11-------11|
E|16-------------------------------------11------|

e|------------------16---------------------------|
B|---------------16------------------------------|
G|---17-15----------------18\17-15---------------|
D|---------15/16-------18----------15------------|
A|------------------------------------11/14------|
E|16----------------------------------11~--------|

e|------------------16---------------------------|
B|---------------16------------------------------|
G|---17-15----------------18\17-15---------------|
D|---------15/16-------18----------15-------13---|
A|------------------------------------11-------11|
E|16-------------------------------------11------|

e|------------------16----------------------------------------|
B|---------------16-------21p16p14p13h14h16h21p16p14p13-------|
G|---17-15---------------------------------------------h15p13~|
D|---------15/16-------18-------------------------------------|
A|------------------------------------------------------------|
E|16----------------------------------------------------------|

| /  slide up
| \  slide down
| h  hammer-on
| p  pull-off
| ~  vibrato
| +  harmonic
| x  Mute note
Related for Spoils tab