Song name
# A B C D E F G H I J K L M N O P Q R S T U V W X Y Z

Protest The Hero - The Dissentience tab

-------------------------------------------------------------------------------
			     The Dissentience - Protest The Hero
-------------------------------------------------------------------------------
Tabbed by: FacetOfChaos
Email: abcnumber4@yahoo.com

Tuning: Half Step Down (D# G# C# F# A# D#)

Make sure to pay attention to the times or this may not make sense.

0:00 - 0:19
D#|---------------------------------------------------------------------|
A#|---------------------------------------------------------------------|
F#|---------------------------------------------------------------------|
C#|-6-7-9-7-6-----------------------------------------------------------|
G#|-----------8-7-5---7-----5---7---8---7-----------------7-----5---7---|
D#|-----------------0---0-0---0---0---0---0-0-3-5-6-5-3-0---0-0---0---0-|x2

D#|------------------------------------------------------------------|
A#|------------------------------------------------------------------|
F#|------------------------------------------------------------------|
C#|--------------------------5---------------------------------------|
G#|-7-5---7-5------------------6-7-----5---7---8---7-----------------|
D#|-----7-----7-6--0-3-0-5-0-------0-0---0---0---0---0-0-3-5-6-5-3-0-|

D#|-----------------------------------------------------------------|
A#|-----------------------------------------------------------------|
F#|-----------------------------------------------------------------|
C#|---------------6-7-9-7-6-----------------------------------------|
G#|-7-----5---7-------------8-7-5---7-----5---7---8---7-------------|
D#|---0-0---0---0-----------------0---0-0---0---0---0---0-0-3-5-6-0-|

D#|-------------------------------|
A#|-------------------------------|
F#|-------------------------------|
C#|-6-7-9-7-6-----------6---------|
G#|-----------8-7-5-7-8---8-7-5---|
D#|-----------------------------8-|

0:19 - 0:28*
1:35 - 1:44
D#|----------------------------------------------------------------|
A#|----------------------------------------------------------------|
F#|----------------------------------------------------------------|
C#|-------------------------------------------7-6------------------|
G#|---7-5---7-5---------------------7-5---7-5------8-7-8-7-5-7-----|
D#|-0-----7-----7-6--0-3-0-5-0-6-0------7----------------------6-0-|x2

*Don't play the ending -6-0- on the repeat*

0:28 - 0:46
D#|-------------------------------------------------------------------|
A#|-------------------------------------------------------------------|
F#|-------------------------------------------------------------------|
C#|-----------------------------------------------------------9-12-11-|
G#|-2-----------2--2----------6---7-------------------8-11-10---------|
D#|-0--5-7-8-5--0--0--5-7-8-5---7----5-7-8-5-4/7-10-9-----------------|x2

D#|--------------------------------------------------------|
A#|--------------------------------------------------------|
F#|------------------------------------------------7--7--7-|
C#|------------------------------------------------5--5--5-|
G#|-2-----------2--2--------6-7-9-7------3---------7--7--7-|
D#|-0--5-7-8-5--0--0--5-7-8----------3-7---7-5-3-----------|

D#|-------------------------------------------------------------------|
A#|-------------------------------------------------------------------|
F#|-------------------------------------------------------------------|
C#|-----------------------------------------------------------9-12-11-|
G#|-2-----------2--2----------6---7-------------------8-11-10---------|
D#|-0--5-7-8-5--0--0--5-7-8-5---7----5-7-8-5-4/7-10-9-----------------|

0:46 - 0:59
D#|----------------------------------------------|
A#|----------------------------------------------|
F#|----------------------------------------------|
C#|--------------14-17-14---13-14-13-------------|
G#|-----13---14----------------------15-14-13----|
D#|-0-0----0--------------0-------------------15-|

D#|-----------------------------------------15-17-18-18-17-15-|
A#|--------------------------------15-16-17-------------------|
F#|-----------------------14-15-16----------------------------|
C#|--------------14-16-17-------------------------------------|
G#|-----13---14-----------------------------------------------|
D#|-0-0----0--------------------------------------------------|x2

D#|---------------------------------------------------------------3-5-6-6-5-3-|
A#|---------------------------------------------------------3-4-5-------------|
F#|---------------------------------------------------2-3-4-------------------|
C#|------------2-5-2---1-2-1--------------------2-4-5-------------------------|
G#|-----1---2----------------3-2-1-------1---2--------------------------------|
D#|-0-0---0----------0-------------3-0-0---0----------------------------------|

0:59 - 1:09
D#|------|------------------------|---|
A#|------|------------------------|---|
F#|------|------------------------|---|
C#|------|------------------------|---|
G#|-2--2-|-2---2---2-----2--2-2-2-|---|
D#|-0--0-|-0---0---0-----0--0-0-0-|x4-|

1:09 - 1:26
D#|---------------------------------------------------------------------|
A#|---------------------------------------------------------------------|
F#|-----------------------------------------------------------------6/9-|
C#|-----8---9-----8---9-----4---5---------8---9---6---7-----------5-----|
G#|-------7---------7---------3---4---------7-------5---6-------4-------|
D#|-0-0-------0-0-------0-0---------3-0-0-------0---------5-3-6---------|

D#|-----------------------------------------------------------------|
A#|-----------------------------------------------------------------|
F#|-----------------------------------------------------------------|
C#|-8---9-----8---9-----4---5---------8---9---6---7-----------------|
G#|---7---------7---------3---4---------7-------5---6---------------|
D#|-------0-0-------0-0---------3-0-0-------0---------5-0-3-0-5-6-0-|x2

1:26 - 1:35
D#|--------------------------------------------------------|
A#|--------------------------------------------------------|
F#|--------------------------------------------------------|
C#|--------------------------------------------------------|
G#|-----------------5----------------------2-2-2-2---2-2-2-|
D#|-3----0----5-6-7----7-6-5--3----0-------0-0-0-0---0-0-0-|x2

Play 1:35 - 1:44

1:44 - 2:01
D#|----------------------------------------------------------------------|
A#|----------------------------------------------------------------------|
F#|----------------------------------------------------------------------|
C#|----------------------------------------------------------------------|
G#|-----10---10-9---5---9---9---10-7-------10---10-9---12---10---9---5-5-|
D#|-0-0----0------0---0---0---0--------0-0----0------0----0----0---0-----|

D#|----------------------------------|-----------------------------------|
A#|----------------------------------|-----------------------------------|
F#|----------------------------------|-----------------------------------|
C#|-----10---10-9---5---9---9---10-7-|-----10---10-9---12---10---9---5-5-|
G#|-0-0----0------0---0---0---0------|-0-0----0------0----0----0---0-----|
D#|----------------------------------|-----------------------------------|x2
Play to the end the first time and repeat to the inserted bar lines.

D#|-----------------------------------------------------------------------|
A#|-----------------------------------------------------------------------|
F#|--------------------------------------------10-12-13-12-14-15-14-16-17-|
C#|-----------------10-12-13----------10-12-13----------------------------|
G#|-7-9-10-10-12-13----------10-12-13-------------------------------------|
D#|-----------------------------------------------------------------------|

2:01 - 2:08
D#|-17-13----15-12------15-10----13-10------12-8----13-8------10-7---12-9----|
A#|-------15-------13---------12-------11--------10------10--------9------10-|
F#|--------------------------------------------------------------------------|
C#|--------------------------------------------------------------------------|
G#|--------------------------------------------------------------------------|
D#|--------------------------------------------------------------------------|

D#|-17-13----15-12------15-10-13-10----------12-8----|
A#|-------15-------13---------------11------------10-|
F#|--------------------------------------------------|
C#|--------------------------------------------------|
G#|--------------------------------------------------|
D#|--------------------------------------------------|

2:08 - 2:27
D#|-------------------------------------------------------------------|
A#|-------------------------------------------------------------------|
F#|-------------------------------------------------------------------|
C#|-----------------------------------------------------------9-12-11-|
G#|-2-----------2--2----------6---7-------------------8-11-10---------|
D#|-0--5-7-8-5--0--0--5-7-8-5---7----5-7-8-5-4/7-10-9-----------------|x2

D#|--------------------------------------------------------------|
A#|--------------------------------------------------------------|
F#|----------------------------------------------------------7\5-|
C#|----------------------------------------------------6---8-----|
G#|-2-----------2--2--------6-7-9-7------3-------5---7---9-------|
D#|-0--5-7-8-5--0--0--5-7-8----------3-7---7-5-3---8-------------|

D#|---------------------------------|
A#|---------------------------------|
F#|---------------------------------|
C#|---------------------------------|
G#|-2-----------2--2----------6---7-|
D#|-0--5-7-8-5--0--0--5-7-8-5---7---|

D#|----------------------------------------------------13-16-14\-|
A#|-------------------------------------------12-15-14-----------|
F#|----------------------------------10-13-12--------------------|
C#|--------------------------9-12-11-----------------------------|
G#|------------------8-11-10-------------------------------------|
D#|-5-7-8-5-4/7-10-9---------------------------------------------|

2:27 - 2:42 (You may use whatever strum pattern you like)
D#|-------------------------------------------------------------------------|
A#|-------------------------------------------------------------------------|
F#|-7---7-7--7--7---7--7--7--7-7-9-9--9-9--9--9-9-12-12--12--12-12-9-9--9-9-|
C#|-7---7-7--7--7---7--7--7--7-7-8-8--8-8--8--8-8-11-11--11--11-11-8-8--8-8-|
G#|-5---5-5--5--5---5--5--5--5-5-7-7--7-7--7--7-7-10-10--10--10-10-7-7--7-7-|
D#|-5---5-5--5--5---5--5--5--5-5-7-7--7-7--7--7-7-10-10--10--10-10-7-7--7-7-|

D#|---------------------------------------------------------------------------|
A#|---------------------------------------------------------------------------|
F#|-7---7-7--7--7---7--7--7--7-7-9-9--9-9--9--9-9-12-12--12--12-12-15--15--15-|
C#|-7---7-7--7--7---7--7--7--7-7-8-8--8-8--8--8-8-11-11--11--11-11-14--14--14-|
G#|-5---5-5--5--5---5--5--5--5-5-7-7--7-7--7--7-7-10-10--10--10-10-13--13--13-|
D#|-5---5-5--5--5---5--5--5--5-5-7-7--7-7--7--7-7-10-10--10--10-10-13--13--13-|

2:42 - 2:56
D#|-----------------4-5-4---4-5-4------4-5-4---------|
A#|-----4-4-------5-------5-------5----------5-------|
F#|---------4-4-6-------------------6----------6-4-6-|
C#|-6-6----------------------------------------------|
G#|--------------------------------------------------|
D#|--------------------------------------------------|

D#|-----------------4-5-4---4-5-4------11-12-11----------------|
A#|-----4-4-------5-------5-------5-------------12-------------|
F#|---------4-4-6-------------------6--------------11-14/16-13-|
C#|-6-6--------------------------------------------------------|
G#|------------------------------------------------------------|
D#|------------------------------------------------------------|x2

2:56 - 3:10
D#|-----------------------------12-----------------------16-12-15-16-15-12----|
A#|----------14------------14------14---------------14---------------------14-|
F#|-------13------------13------------13---------13---------------------------|
C#|----14------------14-----------------------14------------------------------|
G#|-16------------16-----------------------16---------------------------------|
D#|---------------------------------------------------------------------------|

D#|------------------------14-17--------------------------14-17--14--17-14----|
A#|----------16---------16------------------16---------16------------------16-|
F#|-------14-----14--14------------------14-----14--14------------------------|
C#|----14-----------------------------14--------------------------------------|
G#|-16-----------------------------16-----------------------------------------|
D#|---------------------------------------------------------------------------|x2

3:10 - 3:26 (First part sounds fine without the 15 if it's too hard)
D#|-16-14-------16-14-------16-14-------16-14-------------------------------|
A#|----------15----------15----------15----------15-12-14-(14)/16-16b17r16~-|
F#|-------16----------16----------16----------16----------------------------|
C#|-------------------------------------------------------------------------|
G#|-------------------------------------------------------------------------|
D#|-------------------------------------------------------------------------|

(s = slide since can't place multiple / in a row)
D#|-19----------17----------16----------14--------------------------|
A#|----17-16s14----16-14s12----14-12s10----12-10----------10s12-10~-|
F#|----------------------------------------------13-11-13-----------|
C#|-----------------------------------------------------------------|
G#|-----------------------------------------------------------------|
D#|-----------------------------------------------------------------|

-                                 t 
D#|-------11-14-11----------11-14-19-14-11--------------|
A#|----12----------12----12----------------12-----------|
F#|-11----------------11----------------------11--------|
C#|----------------------------------------------13-----|
G#|-------------------------------------------------14~-|
D#|-----------------------------------------------------|

D#|-----------------------------------------|
A#|-----------------------------------------|
F#|----------------------------------9------|
C#|--------------9------11-9----9-11---11-9-|
G#|-11-9----9-11---11-9------11-------------|
D#|------12---------------------------------|

D#|----------------------------------9-----------|
A#|--------------9------12-9----9-12---12-9------|
F#|-11-9----9-11---11-9------11-------------9~~\-|
C#|------11--------------------------------------|
G#|----------------------------------------------|
D#|----------------------------------------------|

3:30 - 3:38
D#|---|-----------------------------------------------|
A#|---|-----------------------------------------------|
F#|---|-----------------------------------------------|
C#|-6-|-9--10--0--9--10--7--9--10--0--9--10--7--6---6-|
G#|-6-|-7--8---0--7--8---5--7--8---0--7--8---5--6---6-|
D#|-4-|-----------------------------------------4---4-|x2

3:38 - 3:50
D#|-------------------------------------------------------------------------|
A#|-------------------------------------------------------------------------|
F#|-------------------------------------------------------------------------|
C#|-------------------------------------------------------------------------|
G#|-------------------------------10-9-8-7------------------------------8---|
D#|-12-13-12-0-7-0-12-13-12-0-7-0-----------12-13-12-0-7-0-12-13-12-0-7---6-|x2

D#|-----------------------------------------------------------|---------------------|
A#|-----------------------------------------------------------|---------------------|
F#|-----------------------------------------------------------|---------------------|
C#|-----------------------------------------------------------|---------------------|
G#|---------------------------------15-14-13-12---------------|----------------13---|
D#|-17-18-17-0-12-0-17-18-17-0-12-0--------------17-18-17-0-12|0-17-18-17-0-12----11|x2
(On repeat play only to the added bar line)

3:50 - 4:02
D#|-----------------------------------------------------|
A#|-----------------------------------------------------|
F#|-----------------------------------------------------|
C#|-6-7-9-7-6-------------------------------------------|
G#|-----------8-7-5---7-----5---7---8---7---------------|
D#|-----------------0---0-0---0---0---0---0-0-3-5-6-5-3-|

D#|--------------------------------------------------------|
A#|--------------------------------------------------------|
F#|--------------------------------------------------------|
C#|---------------6-7-9-7-6--------------------------------|
G#|---7-----5-7-------------8-7-5---7-5---7-5--------------|
D#|-0---0-0-----0-----------------0-----7-----7-6--0-3-0-5-|

D#|------------------------------------------13-16-15-----18-16-13-15\-|
A#|---------------------------------12-15-14---------------------------|
F#|------------------------10-13-12------------------------------------|
C#|----------------9-12-11---------------------------------------------|
G#|--------8-11-10-----------------------------------------------------|
D#|-7-10-9-------------------------------------------------------------|

| t  tap
| s  slide
| /  slide up
| \  slide down
| h  hammer-on
| p  pull-off
| ~  vibrato
| +  harmonic
| x  Mute note
===============================================================================
Tap to rate this tab
 
# A B C D E F G H I J K L M N O P Q R S T U V W X Y Z