Protest The Hero - Cest La Vie tab

----------------------------------------------------------------------------
			     C'EST LA VIE - PROTEST THE HERO
----------------------------------------------------------------------------

Tabbed by: ETHNICX
Email: diogosaraiva_5@hotmail.com

Tuning: Half Step Down (D# G# C# F# A# D#)

YOU ONLY GET THIS BECAUSE I'M LAZY LIKE THAT.

d#|-------------------------------------------------------------------------|
A#|-------------------------------------------------------------------------|
F#|-------------------------------------------------------------------------|
C#|---------------------------7-9-10----------------------------------------|
G#|---------6-----------6-7-9-----------------------------------------------|
D#|-7-5-7-8---8-7-5-7-8-----------------------------------------------------|

d#|-------------------------------------------------------------------------|
A#|-------------------------------------------------------------------------|
F#|-------------------------------------------------------------------------|
C#|-------------------------------------------------------------------------|
G#|---------------------------------------------6---------------------------|
D#|-7---7---7---X-X-7-7-X-X-7---7---7---7-5-7-8---8-7-5---------------------|

THESE SINGLE NOTES RIGHT HERE MAY BE OCTAVE CHORDS LOL IDK

d#|-------------------------------------------------------------------------|
A#|-------------------------------------------------------------------------|
F#|-------------------------------------------------------------------------|
C#|---------------------------------------------------7-9-10----------------|
G#|---------------------------------6-----------6-7-9-----------------------|
D#|-7---7---7---X-X-7-7-X-X-7-5-7-8---8-7-5-7-8-----------------------------|

THEN YOU DO THIS:

d#|-------------------------------------------------------------------------|
A#|-------------------------------------------------------------------------|
F#|-------------------6-------4-------6-------4-----------------------------|
C#|---------------------5-4-5---5-4-5---5-4-5---5-4-5-----------------------|
G#|-9--10--2---5--4---------------------------------------------------------|
D#|-7--8---0---3--2---------------------------------------------------------|

d#|-------------------------------------------------------------------------|
A#|-------------------------------------------------------------------------|
F#|-------------------6-------4-------3h4p3---3h4p3-------------------------|
C#|-4--5----------------5-4-5---5-4-5-------5-------------------------------|
G#|-2--3--2---5-------------------------------------------------------------|
D#|-------0---3-------------------------------------------------------------|


THEN YOU REPEAT STUFF.
AND I DON'T KNOW ANY MORE.


************************************

| /   slide up
| \   slide down
| h   hammer-on
| p   pull-off
| ~   vibrato
| +   harmonic
| x   Mute note
| b   Bend
| pb  Pre-bend
| br  Bend release
| pbr Pre-bend release
| brb Bend release bend

************************************
Tap to rate this tab
 
# A B C D E F G H I J K L M N O P Q R S T U V W X Y Z