Protest The Hero - Tandem tab

-------------------------------------------------------------------------------
			     Tandem - Protest the Hero
-------------------------------------------------------------------------------
Tabbed by: FacetOfChaos
Email: abcnumber4@yahoo.com

Tuning: Half-Step down

READ THIS INFORMATION PLEASE~

Pay attention to the time markers for each section. Should help you to learn the song
and decipher it from text much more easily.

-x2  = play the line twice.
-x2S = play the entire section twice.
-Sometimes I will bracket off a part and add an x2 or other multiple behind it. That
means to play the bracketed part however many times specified.
-Also there are first and second endings used in this tab. They're a fairly
straightforward concept. Play ending 1 the first time, and ending 2 on the repeat. I 
notate these by
bracketing off the ending, and placing a 1. or 2. above it.

-If any of the above is confusing, listening to the section of the song while looking at
the tab should clear up any problems. Protest songs are quite complex and I'll do my
best to keep the tab as clear as possible.

I'm sure that there are some parts that aren't 100%, but I think it all sounds pretty
good. Slowed it down in Audacity but even with that, some bits can be hard to hear. If you
find any corrections, feel free to leave a comment.

0:00 - 0:11
D#|----------------------------------------------------------------------------------|
A#|----------------------------------------------------------------------------------|
F#|-12-------7----------------14------------------14------------14----------------14-|
C#|----0-7-9---0-7-9----------13------------------13------------13----------------13-|
G#|------------------10-------12------------------12------------12----------------12-|
D#|---------------------0-0-0-----0-0-0-0-0-0-0-0-----0-0-0-0-0-----0-0-0-0-0-0-0----|

D#|-------------------------------------------------------------------|
A#|-------------------------------------------------------------------|
F#|-------------------------------------------------------------------|
C#|-------9------------------9------------9------------9-7h9p7------7-|
G#|-------7------------------7------------7-------7-10---------10-7---|
D#|-0-0-0----0-0-0-0-0-0-0-0----0-0-0-0-0----7-10---------------------|x2

0:11 - 0:25
D#|-------------------------------------------------------------------------------------------|
A#|-------------------------------------------------------------------------------------------|
F#|-------------------------------------------------------------------------------------------|
C#|------------------------------------------------------5------------------------------------|
G#|-7-----8-7---------------------7-----8-7--------3-5-7---7-5--7-----8-7---------------------|
D#|---6-5-----0--0--0--0-0--0-0-0---6-5-----0--0-5----------------6-5-----0--0--0--0-0--0-0-0-|

-   1.   t      t      t      t       2.    t      t      t      t         t
D#|[--------------------------------]-[---------------------------------------]|
A#|[--------------------------------]-[------------------------------------13-]|
F#|[-----------------------------6~-]-[-----------------------------7/9-12----]|
C#|[--------4-5-10--------5-7-12----]-[--------4-5-10--------5-7-12-----------]|
G#|[-3-5-10--------5-7-12-----------]-[-3-5-10--------5-7-12------------------]|
D#|[--------------------------------]-[---------------------------------------]|x2S

0:25 - 0:40
-        t       t          t       t         t       t     t        t    t
D#|---------------------------------------------------------------------------------|
A#|------------------------------------------------------10-12/14-10----------------|
F#|---------9-12-14-0----------9-12-14-0---------9-12-14-------------12-9-----------|
C#|-7-11-14------------7-11-14-----------7-11-14--------------------------14-12-11-9|
G#|---------------------------------------------------------------------------------|
D#|---------------------------------------------------------------------------------|

-        t       t          t       t
D#|--------------------------------------|
A#|--------------------------------------|
F#|---------9-12-14-0----------9-12-14-0-|
C#|-7-11-14------------7-11-14-----------|
G#|--------------------------------------|
D#|--------------------------------------|

-        t       t        t        t     t        t    t
D#|-----------------------------12-15-12--------------------------|
A#|-----------------10-12-14/15----------15-14-10-----------------|
F#|---------9-12-14-------------------------------12-9------------|
C#|-7-11-14--------------------------------------------14-11-7-11-|
G#|---------------------------------------------------------------|
D#|---------------------------------------------------------------|x2S

-   t      t        t
D#|--------------------------|
A#|--------------------------|
F#|--------------------------|
C#|--------------------------|
G#|-10-7-5-12-0-7-0-10-0-5-0-|
D#|--------------------------|

0:40 - 0:56
D#|---------------------------------------------------------------------------|
A#|---------------------------------------------------------------------------|
F#|-------------7-9--7----------------------7-----5-7-------------------------|
C#|--------7--9-5-7--5-9-7-------------7--9-5-5-7-----5-7-------------5-7-5---|
G#|-7--5-7-5--7--------7-5--8-5-7--5-7-5--7---------------5-7-----5-7-------7-|
D#|-5--3-5------------------6-3-5--3-5------------------------5-8-------------|

D#|--------------------------------------------|
A#|--------------------------------------------|
F#|-------------7-9--7-----------------------7-|
C#|--------9--9-5-7--5-9-7-5-6----------7--9-5-|
G#|-7--5-7-7--7--------7-5-3-4-5-7--5-7-5--7---|
D#|-5--3-5---------------------3-5--3-5--------|

D#|[----------------------------------]----------------------------------|
A#|[----------------------------------]---10-8---8-----------------------|
F#|[-----5-7--------------------------]--------9---9-7-9-7----7----------|
C#|[-5-7-----5-7--------------5-7-5---]--------------------10---10-7-----|
G#|[--------------5-7-----5-7-------7-]------------------------------10~-|
D#|[------------------5-8-------------]x2--------------------------------|

0:57 - 1:10
D#|-----------------------------------------------------------------|
A#|-------------------------------------------------8-----10---9-12-|
F#|-----------------------------------------------9-----9-----------|
C#|-----------------------9-11--------------------------------------|
G#|------9-11--------9-11------11-----9-7-10-9-7--------------------|
D#|-9-12------12-9------------------8-------------------------------|x2

D#|----------------------------------------------------------------------------|
A#|------------------------------------------------------------8-----10---9-12-|
F#|----------------------------------9-11--------------------9-----9-----------|
C#|---------------------11------9-11------11-----------------------------------|
G#|------9-11------9-11----11--------------------9-7-10-9-7--------------------|
D#|-9-12------12-9-----------------------------8-------------------------------|

D#|-----------------------------------------------------------------|
A#|-------------------------------------------------8-----10---9-12-|
F#|-----------------------------------------------9-----9-----------|
C#|-----------------------9-11--------------------------------------|
G#|------9-11--------9-11------11-----9-7-10-9-7--------------------|
D#|-9-12------12-9------------------8-------------------------------|

1:10 - 1:23
-                           t                 t        t
D#|------------------------------------------------------------|
A#|-------------------------17-0-9-12-9-0-7-9-12-0-5-7-9-0-4-5-|
F#|------------------------------------------------------------|
C#|-2--2--------2--2-------------------------------------------|
G#|-2--2----x-x-2--2----x-x------------------------------------|
D#|-0--0----x-x-0--0----x-x------------------------------------|

D#|------------------------------------------------------------------|
A#|-4--5-------------------------------------------------------------|
F#|--------6---4~---11b13--11b13~~r11--9~---11-(11)/13------9-(9)/11-|
C#|----------------------------------------------------13~-----------|
G#|------------------------------------------------------------------|
D#|------------------------------------------------------------------|

(Here's one of the really difficult passages to hear)
D#|--------------------------------------------------------------------------|
A#|-12-10-9--------0-0-7-9-0-0-10-9-0-0-10-12-10-0-9-10-9-0-7-9-0-10-0-9-7-9-|
F#|---------11-9-8-----------------------------------------------------------|
C#|--------------------------------------------------------------------------|
G#|--------------------------------------------------------------------------|
D#|--------------------------------------------------------------------------|

1:23 - 1:37
D#|---------------------------3-4--5-4-3----12-8------------|
A#|----------------------4-5-------------5-------10---------|
F#|-----------------5-6-----------------------------9-------|
C#|------------6-7------------------------------------10----|
G#|-5---4--4---------------------------------------------12-|
D#|-5---4--4------------------------------------------------|

D#|--------------------------|----------------|
A#|--------------------------|----------------|
F#|---------------------4*---|----------------|
C#|--------------------------|----------------|
G#|-5--4--5--4--7--4--3------|-----5--4--5--6-|
D#|-5--4--5--4--5--4--3------|x2S--5--4--5--6-|

1:37 - 1:48
Play (0:11 - 0:25) again, but leave out the last fill.

1:48 - 1:58
-       t      t      t      t      t      t        t
D#|--------------------------------------------------------|
A#|--------------------------------------------------------|
F#|--------------------------------------------------------|
C#|--------4-5-10--------4-5-10--------4-5-10\9-7-5--------|
G#|-5-7-10--------5-7-10--------5-7-10--------------9/10\9-|
D#|--------------------------------------------------------|

-       t      t      t      t              t   t       t
D#|-------------------------------------------------------|
A#|-------------------------------------------------------|
F#|-----------------------------------------7/9---------7-|
C#|--------4-5-10--------4-5-10\9-7-5-4-5-7-----9-7-5-7---|
G#|-5-7-10--------5-7-10----------------------------------|
D#|-------------------------------------------------------|x2S

1:58 - 2:24
-   t      t         t      t
D#|-----------------------------------------|x2-----------------------------|
A#|-----------------------------------------|-------------------------------|
F#|-13---------------13---------------------|-2--2-2--2--2-2-7--7-7--7--7-7-|
C#|----6-9-12/14-6------6-9-12/14\12--------|-2--2-2--2--2-2-7--7-7--7--7-7-|
G#|----------------7-----------------7-9-11-|-0--0-0--0--0-0-5--5-5--5--5-5-|
D#|-----------------------------------------|----------------5--5-5--5--5-5-|x3S

-   t      t         t      t
D#|-----------------------------------------|x2-----------------------------|
A#|-----------------------------------------|-------------------------------|
F#|-13---------------13---------------------|-2--2-2--2--2-2-7--7-7--7--7-8-|
C#|----6-9-12/14-6------6-9-12/14\12--------|-2--2-2--2--2-2-7--7-7--7--7-8-|
G#|----------------7-----------------7-9-11-|-0--0-0--0--0-0-5--5-5--5--5-6-|
D#|-----------------------------------------|----------------5--5-5--5--5-6-|

2:24 - 2:50
D#|-----------------------------------------------------------|
A#|---------------------------------------------------9-------|
F#|---------------------------------------------------x-------|
C#|--------------2------------------------------------6-------|
G#|-7------8-7---2-------7------8-7--6-5-7------8-7-----------|
D#|----6-5-------0----------6-5-------------6-5---------------|

D#|-------------------------------------------|
A#|-------------------------------------------|
F#|-------------------------------------------|
C#|-6------7-6--5-4-2b~r2--6----------------8-|
G#|----5-4--------------------5-4---------5---|
D#|-------------------------------x-x-x-x-----|

D#|---------------------------------------------------|
A#|--------------5-5---5---------5-5---5--------------|
F#|----------x-x-3-3-x-3-x-x-x-x-3-3-x-3-x-x----------|
C#|-2-----3--x-x-2-2-x-2-x-x-x-x-2-2-x-2-x-x--2-----3-|
G#|-2-1-0-3-----------------------------------2-1-0-3-|
D#|---1-0---------------------------------------1-0---|

D#|-----------------------------------------------------------------------|
A#|---5-------5-------5-------5---------------5-5---5---------5-5---5-----|
F#|-x-3-x-x-x-3-x-x-x-3-x-x-x-3-----------x-x-3-3-x-3-x-x-x-x-3-3-x-3-x-x-|
C#|-x-2-x-x-x-2-x-x-x-2-x-x-x-2--2-----3--x-x-2-2-x-2-x-x-x-x-2-2-x-2-x-x-|
G#|------------------------------2-1-0-3----------------------------------|
D#|--------------------------------1-0------------------------------------|

D#|--------------------------------------------------|
A#|------------5-------5-------5-------5-------5-----|
F#|----------x-3-x-x-x-3-x-x-x-3-x-x-x-3-x-x-x-3-x-x-|
C#|-2-----3--x-2-x-x-x-2-x-x-x-2-x-x-x-2-x-x-x-2-x-x-|
G#|-2-1-0-3------------------------------------------|
D#|---1-0--------------------------------------------|

2:50 - 2:57
D#|---------------------------------------------------------------------|
A#|---------------------------------7-----------------------------------|
F#|-8-----8-----8-9-8-----8-----8-9---9-8---7-----7-----7-9-7-----7-----|
C#|---9-6---9-6-------9-6---9-6-----------9---9-5---9-5-------9-5---9-5-|
G#|---------------------------------------------------------------------|
D#|---------------------------------------------------------------------|

D#|-------------------------------------------------------------|
A#|-------------------------------------------------10----------|
F#|-7-9/11------11------11-12-11------11------11-12----12-11----|
C#|--------12-9----12-9----------12-9----12-9----------------12-|
G#|-------------------------------------------------------------|
D#|-------------------------------------------------------------|

D#|---------------------------------------------|
A#|---------------------------------------------|
F#|-10------10------10-12-10------10------10-12-|
C#|----12-8----12-8----------12-8----12-8-------|
G#|---------------------------------------------|
D#|---------------------------------------------|

2:57 - 3:22
D#|---------------------------------------------------------------------|
A#|---------------------------------------------------------------------|
F#|-12-------12-------12-13-10------10------10-12-10------10------10-12-|
C#|----13-10----13-10----------12-9----12-9----------12-8----12-8-------|
G#|---------------------------------------------------------------------|
D#|---------------------------------------------------------------------|

D#|-------------------------------------------------------|
A#|-------------------------------------------------------|
F#|-8------8------8-10-8------8------8-10-7-----7-----7-8-|
C#|---10-7---10-7--------10-6---10-6--------9-5---9-5-----|
G#|-------------------------------------------------------|
D#|-------------------------------------------------------|

D#|----------------------------------------------------------------|
A#|----------------------------------------------------------------|
F#|----------------------------------------------------------------|
C#|----------------------------------------------------------------|
G#|-3--3-3--3-3--3--3-3--3--3--3-3--2-2--2--2--2-2--2--2-2--2-2--2-|
D#|----------------------------------------------------------------|x2S

D#|----------------------------------------------------------------|
A#|----------------------------------------------------------------|
F#|----------------------------------------------------------------|
C#|----------------------------------------------------------------|
G#|-3--3-3--3-3--3--3-3--3--3--3-3--2-2--2--2--2-2--2--2-2--2-2--2-|
D#|----------------------------------------------------------------|

3:22 - 3:49
D#|-----------------------------------------------------------------|
A#|-----------------------------------------------------------------|
F#|-9-11-9-13-----16-14-16-17-16-14-16-----12-14-11-----9-11-9-13-9-|
C#|-----------------------------------------------------------------|
G#|-7-9--7-11-----14-12-14-15-14-12-14-----10-12-9------7-9--7-11-7-|
D#|-----------------------------------------------------------------|

D#|--------------------------------------------|
A#|--------------------------------------------|
F#|-13-14-10-15-16-17-16-14-16-----10-12-14-10-|
C#|--------------------------------------------|
G#|----------12-14-15-14-12-14-----8--10-12-8--|
D#|--------------------------------------------|x2S

3:49 - 3:58
(I would have written the lowest note on the 6th string but it isn't as practical to
play in my opinion)
D#|--------------9-12-9-------------------------9-12-9------------|
A#|-----------10--------10-------------------10--------10---------|
F#|---------9--------------9---------------9--------------9-------|
C#|------11------------------11---------11------------------11----|
G#|-7-12------------------------12-7-12------------------------12-|
D#|---------------------------------------------------------------|

D#|---------------11-14-11---------------------------11-14-11-------------|
A#|------------12----------12---------------------12----------12----------|
F#|---------11----------------11---------------11----------------11-------|
C#|------13----------------------13---------13----------------------13----|
G#|-9-14----------------------------14-9-14----------------------------14-|
D#|-----------------------------------------------------------------------|

D#|----------------12-15-12----------------------------14-17-14----------------|
A#|-------------13----------13----------------------15----------15-------------|
F#|----------12----------------12----------------14----------------14----------|
C#|-------14----------------------14----------16----------------------16-------|
G#|-10-15----------------------------15-12-17----------------------------17-12\|
D#|----------------------------------------------------------------------------|

D#|--------------------------------------|
A#|--------------------------------------|
F#|-------------7/9----------------------|
C#|--------7--9-5/7----------------------|
G#|-7--5-7-5--7----------------3---4---5-|
D#|-5--3-5---------------------3---4---3-|

3:58 - 4:14
Play (0:40 - 0:56)

4:14 - 4:28
Play (0:57 - 1:10)

4:28 - 5:08
Play (1:10 - 1:23)
-                     t                 t        t
D#|---------------------------------------------------------------------|
A#|----16/17----------17-0-9-12-9-0-7-9-12-0-5-7-9-0-4-5--4--5----------|
F#|-----------14-13~---------------------------------------------6---4~-|
C#|-14------------------------------------------------------------------|
G#|---------------------------------------------------------------------|
D#|---------------------------------------------------------------------|

D#|-------------------------------------------------------------------|
A#|-------------------------------------------------------------------|
F#|-11b13--11b13~~r11--9~---11-(11)/13------9-(9)/11-9~-----11---13---|
C#|------------------------------------13~----------------------------|
G#|-------------------------------------------------------------------|
D#|-------------------------------------------------------------------|

D#|-16-0-12-14-12-0-11-12-11-0-9-11-12-11-9-11-|-16~-------|
A#|--------------------------------------------|-----------|
F#|--------------------------------------------|-----------|
C#|--------------------------------------------|-----------|
G#|--------------------------------------------|-----------|
D#|--------------------------------------------|x4---------|

5:08 - 5:12
D#|-----------------------------------------------------------------|
A#|-----------------------------------------------------------------|
F#|-------14------------------14------------14------------------14\-|
C#|-------13------------------13------------13------------------13\-|
G#|-------12------------------12------------12------------------12\-|
D#|-0-0-0-----0-0-0-0-0-0-0-0-----0-0-0-0-0-----0-0-0-0-0-0-0-0-----|



I used mbthewisewolf's GP tab as a reference. Transcribed it all by ear but used his tab
as a starting point, to get a rhythm quickly, or occasionally to get an idea about what
the hell might be happening in a section. It's tough to hear at times. Wanted to be sure 
to Acknowledge his work.

************************************

| /   slide up
| \   slide down
| h   hammer-on
| p   pull-off
| ~   vibrato
| *   artificial harmonic
| +   harmonic
| x   Mute note
| b   Bend
| pb  Pre-bend
| r  Bend release
| pbr Pre-bend release
| brb Bend release bend

************************************
Tap to rate this tab
 
# A B C D E F G H I J K L M N O P Q R S T U V W X Y Z