Song name
# A B C D E F G H I J K L M N O P Q R S T U V W X Y Z

Protest The Hero - These Colors Dont Run tab

Protest The Hero
these colors don't run
www.protestthehero.com
www.undergroundoperations.com

tabbed by: Glen Robertson

I just ran through the song quickly and got the jist of it.
Im not sure if its perfect, so if you really want me to re-do
a part for you just ask.

(i usually palm mute on the third fret for these)
(0:10 - 0:19)				   2x
e-------------------------------------------|
b-------------------------------------------|
g--------------------------------------5--5-|
d--------------------------------------5--5-|
a-xxx-x-xxx-x-xxx-x-xxxxxxx-xxx-x-xxx--5--5-|
d-xxx-x-xxx-x-xxx-x-xxxxxxx-xxx-x-xxx-------|

(0:20 - ____)
e-----------------------------------------------------------------|
b-----------------------------------------------------------------|
g-10-10-10-10-10-10-11-11-11-11-11-11-11-10-10-10-10-10-----------|
d-x--x--x--x--x--x--x--x--x--x--x--x--x--x--x--x--x--x--x-xxxxxx--|
a-8--8--8--8--8--8--9--9--9--9--9--9--8--8--8--8--8--8--x-xxxxxx--|
d-----------------------------------------------------------------|

(____ - 0:30)             	            2x
e--------------------------------------------|
b--------------------------------------------|
g-10-10-10-10-10-10-11-11-11-11-11-11---5--5-|
d-x--x--x--x--x--x--x--x--x--x--x--x----5--5-|
a-8--8--8--8--8--8--9--9--9--9--9--9----5--5-|
d--------------------------------------------|

(0:31 - 0:41) 				   2x
e-------------------------------------------|
b-------------------------------------------|
g--------------------------------------5--5-|
d--------------------------------------5--5-|
a-xxx-x-xxx-x-xxx-x-xxxxxxx-xxx-x-xxx--5--5-|
d-xxx-x-xxx-x-xxx-x-xxxxxxx-xxx-x-xxx-------|


(0:42 - 0:52)		       		           4x
e---------------------------------------------------|
b---------------------------------------------------|
g-5-5-5-5-5-5---------------------------------------|
d-5-5-5-5-5-5--3-3-3-3-3-3--6-6-6-6-6-6-6-6-6-6-6-6-|
a-3-3-3-3-3-3--3-3-3-3-3-3--6-6-6-6-6-6-6-6-6-6-6-6-|
d--------------3-3-3-3-3-3--6-6-6-6-6-6-6-6-6-6-6-6-|

(0:53 - ____)		   3x(____ - 1:03)
e---------------------------|-------------------------|
b---------------------------|-------------------------|
g---------------------------|--------------------5--5-|
d---------------------------|--------------------5--5-|
a-xxx-x-xxx-x-xxx-x-xxxxxxx-|--xxx-x-xxx-x-xxx-x-5--5-|
d-xxx-x-xxx-x-xxx-x-xxxxxxx-|--xxx-x-xxx-x-xxx-x------|

(1:04 - 1:11)		       	                   3x
e---------------------------------------------------|
b---------------------------------------------------|
g-5-5-5-5-5-5---------------------------------------|
d-5-5-5-5-5-5--3-3-3-3-3-3--6-6-6-6-6-6-6-6-6-6-6-6-|
a-3-3-3-3-3-3--3-3-3-3-3-3--6-6-6-6-6-6-6-6-6-6-6-6-|
d--------------3-3-3-3-3-3--6-6-6-6-6-6-6-6-6-6-6-6-|

(1:12 - 1:14)
e-------------------------------------------------|
b-------------------------------------------------|
g-------------------------------------------------|
d-3-3-3-3-3-3-5-5-5-5-5-5-6-6-6-6-6-6-8-8-8-8-8-8-|
a-3-3-3-3-3-3-5-5-5-5-5-5-6-6-6-6-6-6-8-8-8-8-8-8-|
d-3-3-3-3-3-3-5-5-5-5-5-5-6-6-6-6-6-6-8-8-8-8-8-8-|

(1:15 - 1:26)							   2x
e-------------------------------------------------------------------|
b-------------------------------------------------------------------|
g-8--8-8-8-8--8-8-8-8--8-8-8-8--8-8-8-------------------------------|
d-x--x-x-x-x--x-x-x-x--x-x-x-x--x-x-x--6--6-6-6-6--8--8--8--8--8--8-|
a-6--6-6-6-6--6-6-6-6--6-6-6-6--6-6-6--6--6-6-6-6--8--8--8--8--8--8-|
d--------------------------------------6--6-6-6-6--8--8--8--8--8--8-|

(1:27 - 1:37)
e-------------------------------|
b-------------------------------|
g-------------------------------|
d-------/6----5----6----8----10-|
a-/8----------------------------|
d-------------------------------|

(1:38 - 1:43)					         2x
e---------------------------------------------------------|
b---------------------------------------------------------|
g---------8---------------8---------------8---------------|
d-8-10-11---11-10-8-10-11---11-10-8-10-11---11-10---8-8-8-|
a---------------------------------------------------8-8-8-|
d---------------------------------------------------8-8-8-|

(1:44 - 1:50)								 2x
e-------------------------------------------------------------------------|
b-------------------------------------------------------------------------|
g----------11----------------11----------------11----------------11-------|
d-10-12-13----13-12-10-12-13----13-12-10-12-13----13-12-10-12-13----13-12-|
a-------------------------------------------------------------------------|
d-------------------------------------------------------------------------|

(1:51 - ____)
e--------------------------------------------------------------------------|
b--------------------------------------------------------------------------|
g-10-10-10-10-10-10-10-10-10-10-10-10-15-15-15-15-15-15-13-13-13-13-13-13--|
d-x--x--x--x--x--x--x--x--x--x--x--x--x--x--x--x--x--x--x--x--x--x--x--x---|
a-8--8--8--8--8--8--8--8--8--8--8--8--13-13-13-13-13-13-11-11-11-11-11-11--|
d--------------------------------------------------------------------------|


e--------------------------------------------------------------------------|
b--------------------------------------------------------------------------|
g-8--8--8--8--8--8--8--8--8--8--8--8--15-15-15-15-15-15-13-13-13-13-13-13--|
d-x--x--x--x--x--x--x--x--x--x--x--x--x--x--x--x--x--x--x--x--x--x--x--x---|
a-6--6--6--6--6--6--6--6--6--6--6--6--13-13-13-13-13-13-11-11-11-11-11-11--|
d--------------------------------------------------------------------------|


e--------------------------------------------------------------|
b--------------------------------------------------------------|
g-10-10-10-10-10-12-12-12-12-12-13-13-13-13-13-12-12-12-12-12--|
d-X--X--X--X--X--X--X--X--X--X--X--X--X--X--X--X--X--X--X--X---|
a-8--8--8--8--8--10-10-10-10-10-11-11-11-11-11-10-10-10-10-10--|
D--------------------------------------------------------------|


e--------------------------------------------------------------|
b--------------------------------------------------------------|
g-15-15-15-15-15-13-13-13-13-13-17-17-17-17-17-15-15-15-15-15--|
d-X--X--X--X--X--X--X--X--X--X--X--X--X--X--X--X--X--X--X--X---|
a-13-13-13-13-13-11-11-11-11-11-15-15-15-15-15-13-13-13-13-13--|
D--------------------------------------------------------------|

(____ - 2:07)
e-------------------------------------------------------------------------|
b-------------------------------------------------------------------------|
g-17-17-17-17-17-17-15-15-15-15-15-15-13-13-13-13-13-13-12-12-12-12-12-12-|
d-X--X--X--X--X--X--X--X--X--X--X--X--X--X--X--X--X--X--X--X--X--X--X--X--|
a-15-15-15-15-15-15-13-13-13-13-13-13-11-11-11-11-11-11-10-10-10-10-10-10-|
D-------------------------------------------------------------------------|

(2:08 - 2:18)				      2x
e----------------------------------------------|
b----------------------------------------------|
g--------------------------------------5--5----|
d--------------------------------------5--5----|
a-xxx-x-xxx-x-xxx-x-xxxxxxx-xxx-x-xxx--5--5--x-|
d-xxx-x-xxx-x-xxx-x-xxxxxxx-xxx-x-xxx--------x-|

(2:19 - 2:23)
e-------------------------------------------------|
b-11^------10-10------12-12------13-13------15-15-|
g-x--------x--x--x-x--x--x--x-x--x--x--x-x--x--x--|
d-8^-------8--8--x-x--10-10-x-x--11-11-x-x--13-13-|
a-------------------------------------------------|
d-------------------------------------------------|

(2:23 - ____)
e--------------------------------------------------|
b-18-17-15-17-18-17-15-17-18-17-15-17-18-17-15-17--|
g--------------------------------------------------|
d--------------------------------------------------|
a--------------------------------------------------|
d--------------------------------------------------|

e--------------------------------------------------|
b--------------------------------------------------|
g-18-17-15-17-18-17-15-17-18-17-15-17-18-17-15-17--|
d--------------------------------------------------|
a--------------------------------------------------|
D--------------------------------------------------|

(____ - 2:31)
e----------------------------------------------|
b--------------15-----15-17-15-17-18-17-18-20~-|
g-15-17-15--17----17---------------------------|
d----------------------------------------------|
a----------------------------------------------|
d----------------------------------------------|

clean(2:32 - 2:41) 						   2x
e-------------------------------------------------------------------|
b-------------------------------------------------------------------|
g-8--8-8-8-8--8-8-8-8--8-8-8-8--8-8-8--3--3-3-3-3-------------------|
d-x--x-x-x-x--x-x-x-x--x-x-x-x--x-x-x--x--x-x-x-x--8--8--8--8--8--8-|
a-6--6-6-6-6--6-6-6-6--6-6-6-6--6-6-6--1--1-1-1-1--8--8--8--8--8--8-|
d--------------------------------------------------8--8--8--8--8--8-|

(2:42 - ____)
e---------------------------------------------------|
b---------------------------------------------------|
g-8--8-8-8-8-/12-12-12-12--8--8-8-8-8-/12-12-12-12--|
d-x--x-x-x-x--x--x--x--x---x--x-x-x-x--x--x--x--x---|
a-6--6-6-6-6-/10-10-10-10--6--6-6-6-6-/10-10-10-10--|
d---------------------------------------------------|

(____ - 3:07)				           4x
e---------------------------------------------------|
b---------------------------------------------------|
g-5--5-5-5-5-/12-12-12-12---15--15-15-15-15---17-15-|
d-x--x-x-x-x--x--x--x--x----x---x--x--x--x----x--x--|
a-3--3-3-3-3-/10-10-10-10---13--13-13-13-13-/-15-13-|
d---------------------------------------------------|

NOW LOG OFF YOUR COMPUTER GO TO YOUR LOCAL RECORD STORE AND BY KEZIA BY PROTEST THE HERO!!!!!!!!!!
Tap to rate this tab
 
# A B C D E F G H I J K L M N O P Q R S T U V W X Y Z