Song name
# A B C D E F G H I J K L M N O P Q R S T U V W X Y Z

Protest The Hero - Devine Suicide Of K tab

this is only the intro, i'm almost done with the song, i just need to write it all out. 
should also see a heretics and killers tab from me within the week.


LEFT GUITAR

0:00 - 0:02, 0:04 - 0:06, 0:09 - 0:11, and 0:13 - 0:15-|
eb|----------------------------------------------------|
Bb|----------------------------------------------------|
Gb|----------------------------------------------------|
Db|----------5h7h8-----------5h7h8----10-6-------------|
Ab|-00-5h7h8-------000-5h7h8---------------------------|
Db|-00-------------000--------------0------------------|
    **             ***              *
0:02 - 0:04   and   0:11 - 0:13
eb|----------------------------------------------17/--|
Bb|-------------------------------------10h11h13------|
Gb|----------------------7h9h10-9h10h12---------------|
Db|----------5h7h8-7h8h10-----------------------------|
Ab|-00-5h7h8------------------------------------------|
Db|-00------------------------------------------------|
    **
0:06 - 0:08   and   0:15 - 0:17
eb|--------------------------------------------8h10h12--17/---|
Bb|-----------------------------------10h11h13----------------|
Gb|--------------------7h9h10-9h10h12-------------------------|
Db|-------5h7h8-7h8h10----------------------------------------|
Ab|-5h7h8-----------------------------------------------------|
Db|-----------------------------------------------------------|

0:17 - 0:20
eb|--18-18-18--17-17-17--15-15-15--12h15p12-------------------|
Bb|-----------------------------------------13----------------|
Gb|--------------------------------------------12-------------|
Db|-----------------------------------------------14------0~--|
Ab|--------------------------------------------------15---0~--|
Db|-------------------------------------------------------0~--|

RIGHT GUITAR

0:00 - 0:02, 0:04 - 0:06, 0:09 - 0:11, and 0:13 - 0:15-|
eb|----------------------------------------------------|
Bb|----------------------------------------------------|
Gb|----------5h7h8-----------5h7h8----8-5--------------|
Db|----5h7h8-----------5h7h8---------------------------|
Ab|-00-------------000---------------------------------|
Db|-00-------------000--------------0------------------|
    **             ***              *
0:02 - 0:04   and   0:11 - 0:13
eb|--------------------------------------8h10h12-13/-|
Bb|-----------------------------10h11h13-------------|
Gb|---------5h7h8-7h9h10-9h10h12---------------------|
Db|---5h7h8------------------------------------------|
Ab|00------------------------------------------------|
Db|00------------------------------------------------|
   **
0:06 - 0:08   and   0:15 - 0:17
eb|-------------------------------------8h10h12-14h15h17-22/-|
Bb|----------------------------10h11h13----------------------|
Gb|-------5h7h8-7h9h10-9h10h12-------------------------------|
Db|-5h7h8----------------------------------------------------|
Ab|----------------------------------------------------------|
Db|----------------------------------------------------------|

0:17 - 0:20
eb|--15-15-15--13-13-13--12-12-12--8h12p8-----------------|
Bb|---------------------------------------8---------------|
Gb|-----------------------------------------9-------------|
Db|-------------------------------------------10------0~--|
Ab|----------------------------------------------10---0~--|
Db|---------------------------------------------------0~--|

tabbed alex re re

comment, rate, feedback
Tap to rate this tab
 
# A B C D E F G H I J K L M N O P Q R S T U V W X Y Z