Guitaretab - guitar tabs
Song name
# A B C D E F G H I J K L M N O P Q R S T U V W X Y Z

Protest The Hero - No Stars Over Bethlahem tab

Right Guitar

|---------5-------------------4-7-------------------------15p12p7-14p11p7---|
|-----------6-8-5-6---5-3h5h6-----------------------------------------------|
|-------------------7---------------------4h5---7---------------------------|
|---------------------------------------------------6-----------------------|
|-2-222-2-------------------------2-222---------------222-------------------|
|-0-000-0-------------------------0-000------00---0---000-------------------|
    ...                             ...      ..   .   ... 	


|---------5-------------------4-7-------------------------15p12p7-14p11p7---|
|-----------6-8-5-6---5-3h5h6-----------------------------------------------|
|-------------------7---------------------4h5---7---------------------------|
|---------------------------------------------------6-----------------------|
|-2-222-2-------------------------2-222---------------222-------------------|
|-0-000-0-------------------------0-000------00---0---000-------------------|
    ...                             ...      ..   .   ... 	


|---------5-------------------4-7-------------------------------------------|
|-----------6-8-5-6---5-3h5h6-----------------------------------------------|
|-------------------7----------------------4h5---7--------------------------|
|----------------------------------------------------6----------------------|
|-2-222-2-------------------------2-2--2------------------------------------|
|-0-000-0-------------------------0-0--0-0----00---0---0-000-000------------|
    ...                                  .    ..   .   . ... ...


|--------------------7h11h14-7h12h15----------------------------------------|
|---------------------------------------------------------------------------|
|-----4h5----7----------------------------4h5----7--------------------------|
|----------------6-----------------------------------6----------------------|
|-2-----------------------------------2-----------------2-2-2---------------|
|-0-0-----00---0---0------------------0-0-----00---0----0-0-0---------------|
    .     ..   .   .                    .     ..   .    . . . 

[ Tab from: http://www.guitaretab.com/p/protest-the-hero/76943.html ]
|--------------------15p12p7-14p11p7----------------------------------------|
|---------------------------------------------------------------------------|
|-----4h5----7--------------------------------------------------------------|
|----------------6----------------------------------------------------------|
|-2----------------------------------2-2-22-2-2-22--------------------------|
|-0-0-----00---0---0-----------------0-0-00-0-0-00--------------------------|
    .     ..   .   .


|---------------------------------------------------------------------------|
|---------------------------------------------------------------------------|
|----------------4--------------------------------4-------7-5-4-------------|
|----------4h5h7---7-5-4--------------------4h5h7---7-5-4-------7-----------|
|-2-222-2----------------7-5-3-6---2-222-2----------------------------------|
|-0-000-0--------------------------0-000-0----------------------------------|
    ...                  . .         ...	


|---------------------------------------------------------------------------|
|---------------------------------------------------------------------------|
|----------------7----------------------------------------------------------|
|-5-555-5-4h5h7---7-5-4-----------7-777-7--5---5-4---4-3---2-4-------------|
|-3-333-3----------------7-5-3-6---5-555-5----7-----5-----3-----2-----------|
|---------------------------------------------------------------------------|
    ...                  . .         ...      .     .     .     .

|------8p5p0-------10p7p0--------------------------------------------------|
|------------7p4p0--------8p5p0-8------------------------------------------|
|--------------------------------------------------------------------------|
|--------------------------------------------------------------------------|
|-2222-----------------------------2222------------------------------------|
|-0000-----------------------------0000------------------------------------|
  ....                             ....


|------12p8p0--------------------------------------------------------------|
|-------------8p5p0--------------------------------------------------------|
|-5555--------------11p7p0-------------------------------------------------|
|-5555---------------------10p7p0------------------------------------------|
|-3333----------------------------9p6p0------------------------------------|
|-3333---------------------------------------------------------------------|
  ....


|--------------------------------------------------------------------------|
|--------------------------------------------------------------------------|
|-777-4---4---------------------9-9-6--------------------------------------|
|-777---5---7-4-7-5---5-7-4--2--x-x-x--------------------------------------|
|-555---------------7--------2--7-7-4--555-4-3-----------------------------|
|-555------------------------0---------333-2-1-----------------------------|
  ...                                  ... . .
Related for No Stars Over Bethlahem tab