Song name
# A B C D E F G H I J K L M N O P Q R S T U V W X Y Z

Protest The Hero - Soft Targets Make Softer Graves tab

Soft Targets Make Softer Graves - Protest The Hero
Awesome Song, One of my favourites by them.
No one was coming out with a tab so I attempted myself,
some parts are probably wrong but..at least it sounds
cool, I will try to tab out the rest once i have time.

d#--------------------------------------------------------------------------|
A#------------6-------8-6---6-----------------------------------------------|
F#--------7-----7---7-----7---7---5-7-----5-7---5-7-7-----5-----------------|
C#------7---7-----7-------------7-------------7-------------7---7-8-7-------|
G#----5-------------------------------------------------------5-------------|
C#--------------------------------------------------------------------------|

d#--------------------------------------------------------------------------|
A#------------6-------8-6---6------------------------------------8-6-5------|
F#--------7-----7---7-----7---7---5-7-----5-7---5-7-7------5-7-5------------|
C#------7---7-----7-------------7-------------7-----------------------------|
G#----5---------------------------------------------------------------------|
C#--------------------------------------------------------------------------|

d#--------------------------------------------------------------------------|
A#-------------6-------8-6---6----------------------------------------------|
F#--------7------7---7-----7---7---5-7-----7-5-----------7-5----------------|
C#------7---7------7-------------7-------------8-7-8-7-------8-7-8----------|
G#----5-----------------------------------------------------------8---------|
C#--------------------------------------------------------------------------|

d#--------------------------------------------------------------------------|
A#-------------6-------8-6---6----------------------------------------------|
F#--------7------7---7-----7---7---5-7--------------------------------------|
C#------7---7------7-------------7-----10-10-10-10-10--10--10-10-10-10-10---|
G#----5---------------------------------8--8--8--8--8---8---8--8--8--8--8---|
C#--------------------------------------8--8--8--8--8---8---8--8--8--8--8---|
Tap to rate this tab
 
# A B C D E F G H I J K L M N O P Q R S T U V W X Y Z