Song name
# A B C D E F G H I J K L M N O P Q R S T U V W X Y Z

Protest The Hero - Just Defy tab

----------------------------------------------------------------------------
-			    Just Defy - Protest theHero                    
-----------------------------------------------------------------------------
Tabbed by:escapethefate9
Email:saosin7890@yahoo.com

Tuning:E Flat tuning

Guitar 1
e|------------------------------------------------------------------|
B|------------------------------------------------------------------|
G|--------------5~-------------5~--3~-------------------------------|
D|--------------3~-------------3~--3~------5----3---------3---------|
A|55----55555---3~--55--55555--3~--3~----------------3h4h5--5p4-3---|
E|33----33333-------33--33333----------333---33---33----------------|
  **    *****       **  *****          ***  **   ** 
  

e|----------------------------|
B|----------------------------|
G|--------------------------3-|
D|-----5----3-----------3-5---|whole thing x2
A|----------------3h4h5-------|
E|--33---33----33-------------|
    **   **    **
sorry i dont have the whole tab yet 
i figured it would be better to get what i have so far out there. 
it's coming soon to a tab near you
Tap to rate this tab
 
# A B C D E F G H I J K L M N O P Q R S T U V W X Y Z