Song name
# A B C D E F G H I J K L M N O P Q R S T U V W X Y Z

Protest The Hero - She Who Mars The Skin Of Gods tab

		    -----PROTEST THE HERO-----
	      -----She Who Mars The Skin Of Gods-----
                             --Intro--
			 up until bridge 1 :)
Tabbed by:Wade              
Email:X_33wade33_X@hotmail.com

Tuning:

e|---------------------------------------------------------------------------|
B|---------------------------------------------------------------------------|
G|---------------------------------------------------------------------------|
D|--------------------------------7------------------------------------------|
A|--------------------------------7------------------------------------------|
E|---Pick~~~Scrape----------------5------------------------------------------|

e|--------------------------------------------------------------------------------|
B|--------------------------------------------------------------------------------|
G|---------------------------------------------------------------10--12--10--9\---|
D|---5-----------5----------------------------------7--8--10--7-------------------|
A|-------8---7-------8---5-7-8-7-------10---8---7---------------------------------|
E|-5---5---5---5---5---5---------6---6----6---6---6-------------------------------|
   .   .   .   .   .   .         .   .    .   .   . 
e|---------------------------------------------------------------------------|
B|---------------------------------------------------------------------------|
G|---------------------------------------------------------------------------|
D|--2-----5------8-----------------------------------------------------------|
A|--0--0-----0-------7h8p7-----10---8---7---10---8---5-7-8-7-----------------|
E|---------------------------8----8---8---8---8---8----------5---------------|
    .  .     .               .    .   .   .   .   .          .
e|----------------------------------------------------------------------------------|
B|----------------------------------------------------------------------------------|
G|----------------------------------------------------------------------------------|
D|---5-----------5----------------------------------------------------------------7-|
A|-------8---7-------8---5-7-8-7-----8-8-8-8-8-8-8-8-8-8-8-8-8-8---------10p8-------|
E|-5---5---5---5---5---5-------------6-6-6-6-6-6-6-6-6-6-6-6-6-6---7----------------|
   .   .   .   .   .   .             . . . . . . . . . . . . . . 
e|---------------------------------------------------------------------------|
B|---------------------------------------------------------------------------|
G|---------------------------------------------------------------------------|
D|---------------------------------------------------------------------------|
A|----10---8---7---10---8---5-7-8-7\-----------------------------------------|
E|--8----8---8---8----8---8--------------------------------------------------|
    .    .   .   .    .   .
e|---------------------------------------------------------------------------|
B|---------------------------------------------------------------------------|
G|---------------------------------------------------------------------------|
D|--2-2-2--------------------------------2-2-2-------------------------------|
A|--2-2-2-----2-2-2-2-2-----2-2-2-2------2-2-2-----2-2-2-2-----1-------------|
E|--0-0-0-----0-0-0-0-0-----0-0-0-0------0-0-0-----0-0-0-0---3---2-----------|
              . . . . .     . . . .                . . . .
e|---------------------------------------------------------------------------|
B|---------------------------------------------------------------------------|
G|---------------------------------------------------------------------------|
D|--2-2-2---------------3~---2-2-2-----------------3~------------------------|
A|--2-2-2-----2-2-2-2--------2-2-2------2-2-2-2-2----------------------------|
E|--0-0-0-----0-0-0-0--------0-0-0------0-0-0-0-0----------------------------|

e|---------------------------------------------------------------------------|
B|---------------------------------------------------------------------------|
G|-------------------------------------5-5-5---------------------------------|
D|--2-2-2--------------------------5---5-5-5---------------7-7-7-4-5-6-------|
A|--2-2-2----2-2-2-2-2----2-2-2-2--2---3-3-3-----7-7-7-7---7-7-7-4-5-6-------|
E|--0-0-0----0-0-0-0-0----0-0-0-0----------------5-5-5-5---5-5-5-2-3-4-------|
             . . . . .    . . . .                . . . .
e|---------------------------------------------------------------------------|
B|---------------------------------------------------------------------------|
G|-------------------------------------5-5-5-5-5-5-5-5-----------------------|
D|--2-2-2--------------------------5---5-5-5-5-5-5-5-5---7-------7----7------|
A|--2-2-2----2-2-2-2-2----2-2-2-2--2---3-3-3-3-3-3-3-3---7-------7----7------|
E|--0-0-0----0-0-0-0-0----0-0-0-0------------------------5-------5----5------|
             . . . . .    . . . .                

perhaps i will finish this later but till then this is it :)

| /  slide up
| \  slide down
| h  hammer-on
| p  pull-off
| ~  vibrato
| +  harmonic
| x  Mute note
===============================================================================
Tap to rate this tab
# A B C D E F G H I J K L M N O P Q R S T U V W X Y Z