Song name
# A B C D E F G H I J K L M N O P Q R S T U V W X Y Z

Protest The Hero - Blood Meat tab

They're releasing an official Tab book with their release of fortress, so make sure to 
it when it comes out. This is just to hold you over until then.

Tabbed by : Mark Mac Donald
Date: December 8th 2007

Luke's Guitar Part, about 1:13 into the song

song is in Eb

Eb-----
Bb-----
Gb-----
Db-----
Ab-----
Eb-----


p = pull off, played by right or left hand after tap or hammer on

h = hammer on, played by left hand

t = tap, played by right hand

t/s = slide tap, played by right hand. tap first not and slide to next with same finger

first part of solo

|--------------13-----------------------13--------------------------|
|-------14-15------15-14----------14-15----15-14----------14-15-----|
|-14-15------------------15-14-15----------------15-14-15-----------|
|-------------------------------------------------------------------|
|-------------------------------------------------------------------|
|-------------------------------------------------------------------|


-18-17-15----------------------------------------------------------|
----------18-17-15-14----------------------------------------------|
----------------------15-14-12-14-15-------------------------------|
-------------------------------------------------------------------|  x2
-------------------------------------------------------------------|
-------------------------------------------------------------------|

first tap part


  h h  t  p h t  h h t  p  p t  p  p  t/s
|-------------------------------------------------------------------|
|----------------8--------------------------------------------------|
|---9--17-0---16---9-19-12-9-21-12-9-17-19--------------------------|
|-7---------5-------------------------------------------------------|  x2
|-------------------------------------------------------------------|
|-------------------------------------------------------------------|


second tap part


  h h t  h h t  h h  t  p h  t  p h t  h h t  h h t  h h  t  h h  t  h h  t/s
|------------------------------------------------------------8-10-12------------|
|---------------8-10-12-0----------------------------8-10-12---------7-8-12-13--|
|-----12-7-9-11--------------12-0---11-----12-7-9-11----------------------------|
|---9---------------------10------9------9--------------------------------------|
|-7------------------------------------7----------------------------------------|
|-------------------------------------------------------------------------------|


intro part that goes also after second tap


|-------------------------------------------------------------------|
|-12----12----12-12----12----12----12----12-12----------------------|
|-15----15----15-15----15----15----15----15-15----------------------|
|-14----14----14-14----14----14----14----14-14----------------------|
|-13----13----13-13----13----13----13----13-13----------------------|
|-------------------------------------------------------------------|

play previous section (section tap part) after this one
Tap to rate this tab
 
# A B C D E F G H I J K L M N O P Q R S T U V W X Y Z