Song name
# A B C D E F G H I J K L M N O P Q R S T U V W X Y Z

Protocol - Wheres The Pleasure tab

Where's the pleasure by Protocol, a absolute class song and easy to play too! visit 
site: www.protocolofficial.com

Standard Tuning.

Chords used:
   Em  C  G  B or B  D  Cm
e|--7--3--3--7----2--5--3--|
B|--8--5--4--7----4--7--4--|
G|--9--5--5--8----4--7--5--|
D|--9--5--5--9----4--7--5--|
A|--7--3--3--9----2--5--3--|
E|--7--3--3--7----2--5--3--|

______________________________________________________________
Intro
e|-----------------------------------------------------------|
B|-----------------------------------------------------------|
G|------------------------------------------4----------------|
D|--14-(slide to)-2-----2--4-5--4--2-------------------------|
A|-----------------------------------------------------------|
E|-----------------------------------------------------------|

e|-----------------------------------------------------------|
B|-----------------------------------------------------------|
G|--------------------4----2------------7--------------------|
D|--2--4-5--4--2--------------4------------------------------|
A|-----------------------------------------------------------|
E|-----------------------------------------------------------|

e|-----------------------------------------------------------|
B|-----------------------------------------------------------|
G|--7(slide to)4 ----------------8---------------------------|
D|----------------------4------------------------------------|
A|-----------------------------------------------------------|
E|-----------------------------------------------------------|

N.B. Play it all in barre chords..it sounds better...

Verse 1(strum down, then up once for each chord)

      Em                 Em                C      C
Now i know i was mad to think that u were mine
           G       G             D         D B
How will i ever find somebody beautfiul..?
     Em                       Em                  C      C
And this is the thought that I've been tryin' to hide.
         G              G                  D       D
Cus you wasted all my time, that's when I knew...


Prechorus(strum down 16 times per chord)

C
And all the feelings i'd like to share,
Cm
i love the tangle thats in your hair
G                          B
i see you now, but i cant have you


Chorus (strum down 16 times per chord)

Em                          C                          D
So i wont try to touch you, i wont undress you with my eyes no more
     B
cos she wont want me to
Em                          C                          D
So i wont try to touch you, i wont undress you with my eyes no more
     B
cos she wont want me to...so wheres the pleasure with you

Intro Riff Again

Verse 2(strum down, then up once for each chord)

      Em                         Em              C      C
You killed me inside and you've left me here to die.
         G               G             D     D
Why, oh why, I'll never find somebody new,


Prechorus(strum down 16 times per chord)

C
With all the feelings i'd like to share,
Cm
i love the tangle thats in your hair
G                          B
i see you now, but i cant have you


Chorus (strum down 16 times per chord)

Em                          C                          D
So i wont try to touch you, i wont undress you with my eyes no more
     B
cos she wont want me to
Em                          C                          D
So i wont try to touch you, i wont undress you with my eyes no more
     B
cos she wont want me to...so wheres the pleasure with you


Intro Riff Again


Bridge (strum down 16 times per chord)

(no chords)
if theres a chance you know im there, i'd sell my soul without a care
G                          B
i see you now, but i cant have you


Chorus (strum down 16 times per chord)

Em                          C                          D
So i wont try to touch you, i wont undress you with my eyes no more
     B
cos she wont want me to
Em                          C                          D
So i wont try to touch you, i wont undress you with my eyes no more
     B
cos she wont want me to...so wheres the pleasure with you
Tap to rate this tab
# A B C D E F G H I J K L M N O P Q R S T U V W X Y Z