Protoje - Rasta Love Feat Kymani Marley tab

-------------------------------------------------------------------------------
			     Rasta Love - Protege feat. Kymani Marley
-------------------------------------------------------------------------------
Tabbed by: Nick Williams
Email: kaoticnick@hotmail.com

Tuning: EADGBe

Chorus :

e|--12--10-----10--12----10----10--------------10--10--10--12--13--12--------|
B|----------13--------------13-----13--13--13--------------------------------|
G|---------------------------------------------------------------------------|
D|---------------------------------------------------------------------------|
A|---------------------------------------------------------------------------|
E|---------------------------------------------------------------------------|

She didn't know how...she was in love with...

e|--12--10-----10--12----10----10----------10--10--10--10--12--10------------|
B|----------13--------------13-----13--13--------------------------13--------|
G|---------------------------------------------------------------------------|
D|---------------------------------------------------------------------------|
A|---------------------------------------------------------------------------|
E|---------------------------------------------------------------------------|

Fire was burning....holding in...*rap part begins*

************************************

| /   slide up
| \   slide down
| h   hammer-on
| p   pull-off
| ~   vibrato
| +   harmonic
| x   Mute note
| b   Bend
| pb  Pre-bend
| br  Bend release
| pbr Pre-bend release
| brb Bend release bend

************************************

P.S. Ultimate Guitar wants some background info on Protege sooo...he's a break-out
reggae artiste here in Jamaica and this is his first hit single. He's signed to Don Corleon
Records and I can't find an official website for him but this song is insanely popular 
here at the moment and there's an official music video on YouTube.

http://www.youtube.com/watch?v=AkWXXGe49cw
Tap to rate this tab
 
# A B C D E F G H I J K L M N O P Q R S T U V W X Y Z