Song name
# A B C D E F G H I J K L M N O P Q R S T U V W X Y Z

Prototype - Sea Of Tranquility tab

-------------------------------------------------------------------------------
			   Prototype - Sea of Tranquility
-------------------------------------------------------------------------------
Tabbed by: Jordan Greczkowski
Email: jgsox33@sbcglobal.net
Tuning: Drop D

This is an instrumental by Prototype, which not many people know about.
Check them out! This is one of my favs from them.

'Riff' 1
e|---------------------------------------------------------|
B|---------------------------------------------------------|
G|------1---0---------1---0---------1---0------------------|
D|------------------------------------------------3---1----|
A|----3---3---3-----3---3---3-----3---3---3-----3---3---3--|
D|--3-------------3-------------1-------------1------------|

e|-------------------------------------------------------|
B|-----------------------1--------1----------------------|
G|------1---0--------1----------------3------------------|
D|----3---3---3----3---3---3----3---3---3---6-5-3--------|
A|--4------------4------------1-------------------6-4-3--|
D|-------------------------------------------------------|


'Riff' 2
e|---------------------------------------------------------|
B|---------------------------------------------------------|
G|------1---0---------1---3---------1---0---------1---5----|
D|---------------------------------------------------------|
A|----3---3---3-----3---3---3-----3---3---3-----3---3---3--|
D|--3-------------3-------------1-------------1------------|

e|-------------------------------------------------------|
B|------2---1------------1--------1----------------------|
G|-------------------3----------------3------------------|
D|----3---3---3----3---3---3----3---3---3----------------|
A|--4------------4------------1-----------------1-3-4-6--|
D|------------------------------------------5-6----------|


'Riff' 3
e|---------------------------------------------------------|
B|---------------------------------------------------------|
G|------8---8---------8---8---------1---0---------1---0----|
D|----6---6---6-----6---6---6------------------------------|
A|--4-------------4---------------3---3---3-----3---3---3--|
D|------------------------------3-------------3------------|

e|---------------------------------------------------------|
B|--------------------6------------------------------------|
G|------8---8-----------8-----------1---0------------------|
D|----6---6---6-----6-----6--------------------------------|
A|--4-------------4---------4-----3---3---3-------1-3-4-6--|
D|------------------------------1-------------5-6----------|


'Riff' 4
e|---------------------------------------------------------|
B|---------------------------------------------------------|
G|------8---8---------8---8---------1---0---------1---0----|
D|----6---6---6-----6---6---6------------------------------|
A|--4-------------4---------------3---3---3-----3---3---3--|
D|------------------------------3-------------3------------|

e|-------------------------------------------------------------|
B|--------------------6----------------------------------------|
G|------8---8-----------8-----------1---0----------------------|
D|----6---6---6-----6-----6-------------------6-5-3------------|
A|--4-------------4---------4-----3---3---3---------6-4-3/4\3--|
D|------------------------------1------------------------------|


'Riff' 1
e|---------------------------------------------------------|
B|---------------------------------------------------------|
G|------1---0---------1---0---------1---0------------------|
D|------------------------------------------------3---1----|
A|----3---3---3-----3---3---3-----3---3---3-----3---3---3--|
D|--3-------------3-------------1-------------1------------|

e|-------------------------------------------------------|
B|-----------------------1--------1----------------------|
G|------1---0--------1----------------3------------------|
D|----3---3---3----3---3---3----3---3---3---6-5-3--------|
A|--4------------4------------1-------------------6-4-3--|
D|-------------------------------------------------------|


Outro
e|---------------------------------------------------------|
B|---------------------------------------------------------|
G|------1---0---------1---3---------1---0---------1---5----|
D|---------------------------------------------------------|
A|----3---3---3-----3---3---3-----3---3---3-----3---3---3--|
D|--3-------------3-------------1-------------1------------|

e|-------------------------------------------------------------|
B|------2---1------------1--------1----------------------------|
G|-------------------3----------------3------------------------|
D|----3---3---3----3---3---3----3---3---3---6-5-4--------------|
A|--4------------4------------1-------------------6-4-3-3-1----|
D|----------------------------------------------------------1--|

e|---------|
B|---------|
G|------0--|
D|---------|
A|----3----|
D|--3------|


So; Song order
Riff 1
Riff 2
Riff 3
Riff 4
Riff 1
Outro
Tap to rate this tab
 
# A B C D E F G H I J K L M N O P Q R S T U V W X Y Z