Guitaretab - guitar tabs
Song name
# A B C D E F G H I J K L M N O P Q R S T U V W X Y Z

Prototype - The Way It Ends tab

pay close attention to the articulation, im certain i didn't tab that
out correctly, but just listen to the song and match the articulation,
it makes a huuuuuge difference and makes your playing sound much better
and try to bring the harmonics out aloooot here, helps if you have
active pick-ups, btw its in B flat minor if you want to add stuff

e|---------------------------------------------------------------------------|
b|---------------------------------------------------------------------------|
g|---------------------------------------------------------------------------|
d|//8~-/8-10--11-11~-/13-11-10-11h10------/8-8h10p8p7-8-10-8h10-8~-8-/10--11-|
a|-----------------------------------9~--------------------------------------|
D|-----------------------------------^---------------------------------------|
           slight bend, bring out the harmonic while rebending back to 9
[ Tab from: http://www.guitaretab.com/p/prototype/186367.html ]
e|------------------------------------------------|      end of ambient solo, i
b|------------------/11~-11h13p11p10~-11-13-------|      added the next part too
g|--------------11~-------------------------------|      cuz its awesome, its a bit
d|11~-/13-11-10-----------------------------------|      of a stretch on your hand,
a|------------------------------------------------|      but just work on it
D|------------------------------------------------|

e|---------------------------------------------------------------------------|
b|---------------------------------------------------------------------------|
g|---------------------------------------------------------------------------|
d|----10---8--------6---8-------10---8-------6---4-------6---4-------6---4---|
a|---------------------------------------------------------------------------|
D|888----8----8-888---8---8-444----4---4-444---4---4-111---1---1-111---1---1-|


first ending                    second ending

e|----------------------- ||    e|----------------------|
b|----------------------- ||    b|----------------------|
g|-----------------------.||    g|----------------------|
d|----8---8-------7---7--.||    d|----8--------------7--|
a|----------------------- ||    a|----------------------|
D|333---3---3-333---3---3 ||    D|333--------3333333----|

don't be too harsh and submit corrections if you want, and sorry for not
tabbing out the actual solo... the ambient solo is more of an interlude..
but it still sounds awesome
Related for The Way It Ends tab
The Way It Ends chords by Prototype