Song name
# A B C D E F G H I J K L M N O P Q R S T U V W X Y Z

Prototype - Synthespian tab

                             SYNTHESPIAN - Prototype


                From the 1998 EP "Cloned", and the 2006 LP "Continuum"

                             Tabbed by Unholy Crusada


                This is an amazing song by an amazing band. If you have time, I would
suggest you check them out and give them the attention and support they so greatly
I have tabbed this completely by ear, so do not expect this to be 100% accurate. The 
may be a little off in some areas, but everything else sounds spot on. It should be fairly
what is palm muted. This is my first tab, so I hope you enjoy.

Guitar I  (Kragen) [DGCFAD]
Guitar II (Vince)  [DGCFAD]


Intro/Clean Part

Guitar I

D--------------------------------------------------------------|
A--------------------------------------------------------------|
F------------------------0-------------------------------------|
C-----------------------------0--------------------------------|    x6
G-------------------3--------------2---------------------------|
D----------------1----------------------3----------------------|


Main Riff

Guitar II (Enter after 2nd repetition of clean part)

D-------------------------------------------------------------------------|
A-------------------------------------------------------------------------|
F-------------------------------------------------------------------------|
C-------------------------------------------------------------------------|  x4
G--3------3------3/5-5------5------5/7-7------7------7/8-8------8-10-10---|
D--1-1111-1-1111-1/3-3-3333-3-3333-3/5-5-5555-5-5555-5/6-6-6666-6-8--8----|


After 6th repetition of clean part, both guitars play this:

D----------------------------------------------------------------------|
A----------------------------------------------------------------------|
F----------------------------------------------------------------------|
C----------------------------5-------5--5-----5-------5----------------|
G--22222--2-2-55555-44444-3--3--3/5--3--3--3--3--3/5--3----------------|
D--00000--0-0-33333-22222-1-----1/3--------1-----1/3-------------------|

Second repitition, Guitar II plays this:

D----------------------------------------------------------------------|
A----------------------------------------------------------------------|
F----------------------------------------------------------------------|
C--------------------------------5------5--------5------5--------------|
G--22222--2-2-55555-44444-3------3-3333-3-5------3-3333-3--------------|
D--00000--0-0-33333-22222-1-1111----------3-3333-----------------------|

D----------------------------------------------------------------------|
A----------------------------------------------------------------------|
F----------------------------------------------------------------------|
C---------5------5--------5------5-------------------------------------|
G--3------3-3333-3-5------3-3333-3-------------------------------------|
D--1-1111----------3-3333----------------------------------------------|


Main Riff x2 Both Guitars
(Verse)


Guitar I Clean Part x4
AND
Guitar II Main Riff x2

There is also a 3rd guitar part in the backround playing a simple lead of some sort at
point, but I have not tabbed it since it really seems to be there just to give a more
sound.

Chorus

D----------------------------------------------------------------------|
A----------------------------------------------------------------------|
F----------------------------------------------------------------------|
C----------------------------------------------------------------------| x2
G--7-----8-8-8/10--10/12--7-----8-8-8/10--12/10------------------------|
D--5-555-6-6-6/8----------5-555-6-6-6/8--------------------------------|


This next solo is very fast and technical, making it very difficult for me to determine
Kragen is playing. This is my best guess, but don't expect this to be nearly as accurate
the rest of the tab.


Solo

Guitar I

D----------------------------------------------------------------------|
A--13-12-10-12---------------------------------------------------------|
F--------------10-7-9h10p9-------10-9-7----10p9------------------------|
C---------------------------------------10------9b---------------------|
G----------------------------------------------------------------------|
D----------------------------------------------------------------------|

D--12h13h15p13p12--13p12p10--12p10p8--7b------7h8h10p8p7--8p7p5--7p5p3-|
A----------------------------------------------------------------------|
F----------------------------------------------------------------------|
C----------------------------------------------------------------------|
G----------------------------------------------------------------------|
D----------------------------------------------------------------------|

D--20p19p17h19----19p17p15h17----14-|
A-----------------------------------|
F-----------------------------------|
C-----------------------------------|
G-----------------------------------|
D-----------------------------------|

D----------------------------------------------------------------------|
A----------------------------------------------------------------------|
F-------10---12-9-17-16-14--14h16h17p14--7--8p7------------------------|
C--9-10----9-----------------------------------------------------------|
G----------------------------------------------------------------------|
D----------------------------------------------------------------------|

D--12h13p12/10--10h12p10/8--8h10/7----7--|b
A----------------------------------------|
F----------------------------------------|
C----------------------------------------|
G----------------------------------------|
D----------------------------------------|

D---------------------------------------------------|
A--8-6h8p6p5--12-10h12p10p9--15-13h15p13p12--17--17-|
F---------------------------------------------------|
C---------------------------------------------------|
G---------------------------------------------------|
D---------------------------------------------------|

D--------------------10h12h13-12h13h15-15h17h19-20--|
A--15-13-12-10h12h13--------------------------------|
F---------------------------------------------------|
C---------------------------------------------------|
G---------------------------------------------------|
D---------------------------------------------------|

On last note slide back down to bottom of the neck.

Post-Solo Riff

Both Guitars

D--------------------------|
A--------------------------|
F--------------------------|
C--------------------------|  x3
G--3--3--7777--2--2--5-5---|
D--1--1--5555--0--0--3-3---|


Fourth Time:

D-----------------------|
A-----------------------|
F-----------------------|
C-----------------------|
G--3--3--7777--2--2-----|
D--1--1--5555--0--0-----|


Main Riff x2 Both Guitars
(Verse 2)

Clean Part Guitar I x4
AND
Main Riff Guitar II x2

Chorus x2


Tempo Changes Here


Bridge

D---------------------------------------------------------------------|
A---------------------------------------------------------------------|
F---------------------------------------------------------------------|
C--9-5-2-----9-5-2-----7---7/9/7---9-5-2-----9-5-2-----7---7/9/7------|
G--7-3-0-0-0-7-3-0-0-0-5-5-5/7/5---7-3-0-0-0-7-3-0-0-0-5-5-5/7/5------|
D---------------------------------------------------------------------|

D-------------------|
A-------------------|
F-------------------|
C-------------------|   x2
G--12-12/10-10------|
D--10-10/8--8-------|

Second Bridge

D-----------------------------------------------------------------|
A-----------------------------------------------------------------|
F-----------------------------------------------------------------|  x2
C--5---------5-------------7---7/9/7/5-2-----7/5-2-----5-5/4-4/5--|
G--3-5-3-----3-5-3---------5-5-5/7/5/3-0-0-0-5/3-0-0-0-3-3/2-2/3--|
D----3-1-1-1---3-1-1-1-1-1----------------------------------------|


Outro

D-----------------------------------------|
A-----------------------------------------|
F-----------------------------------------|
C-----------------------------------------|
G-------3------3------3------3------------|
D--1111-1-1111-1-1111-1-1111-1-1111133333-|

D-------------------------------------------------|        Repeat Until Fade
A-------------------------------------------------|
F-------------------------------------------------|
C-------------------------------------------------|
G-------7------7------7------7--------------------|
D--5555-5-5555-5-5555-5-5555-5-7777755555---------|
Tap to rate this tab
# A B C D E F G H I J K L M N O P Q R S T U V W X Y Z