Song name
# A B C D E F G H I J K L M N O P Q R S T U V W X Y Z

Prototype - Undying tab

 First tab..don't kill me.



Guitar 1  (Rhythm)[DGCFAD]
Guitar 2  (Lead)  [DGCFAD]


             Guitar 1

D-----------------------------------------------------------------|
A--------0------1------------0------1----------------0-----1------|
F-----0-----0------------0------0-----------------0-----0---------|
C-----------------------------------------------------------------|
G-----------------------------------------------------------------|
D-1-------------------1--------------------5----------------------|

D-------------------------------------|
A--------------0-------1--------------|
F----------0-------0------------------| x4
C-------------------------------------|
G-------------------------------------|
D---5---------------------------------|

Guitar 2


D------3/5-----7h8p7---8/10----8-7-8-7---7-8-7-5-----------------------|
A-----------------------------------------------5-5h6------------------|
F-------------------------------------------------------7/9/7----------|
C-------------------------------------------------------0--------------|
G----------------------------------------------------------------------|
D----------------------------------------------------------------------|


D-----------------------------------|
A-----------------------------------|
F---7/5/4---7-7-7-7/9---------------|
C---0-------------------------------|
G-----------------------------------|
D-----------------------------------|
Tap to rate this tab
 
# A B C D E F G H I J K L M N O P Q R S T U V W X Y Z