Song name
# A B C D E F G H I J K L M N O P Q R S T U V W X Y Z

Prototype - Sea Of Tranquility tab

                              Sea of Tranquility                                


                                                                       Prototype
Nylon string classical guitar



     E  E  E  E  E  E     E  E  E  E  E  E     E  E  E  E  E  E   
D||--------------------|--------------------|--------------------|
A||--------------------|--------------------|--------------------|
F||--------3-----2-----|--------3-----2-----|--------3-----2-----|
C||-----0-----0-----0--|-----0-----0-----0--|-----0-----0-----0--|
G||--------------------|--------------------|--------------------|
D||--3-----------------|--3-----------------|--1-----------------|


  E  E  E  E  E  E      E  E  E  E  E  E     E  E  E  E  E  E   
---------------------|--------------------|--------------------|
---------------------|--------------------|--------------------|
--------0------------|-----0-----0-----0--|-----0-----0--7-----|
-----0-----0--3------|--------8-----7-----|--------8--------5--|
-----------------3S--|--6-----------------|--6-----------------|
--1------------------|--------------------|--------------------|


  E  E  E  E  E  E     E  E  E  E  E  E     E  E  E  E  E  E   
--------------------|--------------------|--------------------|
--------------------|--------------------|--------------------|
--------7-----5-----|--3--2--0-----------|--------3-----2-----|
-----5-----5-----5--|-----------3--1--0--|-----0-----0-----0--|
--3-----------------|--------------------|--------------------|
--------------------|--------------------|--3-----------------|


  E  E  E  E  E  E     E  E  E  E  E  E     E  E  E  E  E  E   
--------------------|--------------------|--------------------|
--------------------|--------------------|--------------3-----|
--------3-----5-----|--------3-----2-----|--------3-----------|
-----0-----0-----0--|-----0-----0-----0--|-----0-----0-----0--|
--------------------|--------------------|--------------------|
--3-----------------|--1-----------------|--1-----------------|


  E  E  E  E  E  E     E  E  E  E  E  E     E  E  E  E  E  E   
--------------------|--------------------|--------------------|
--------------------|--------------------|--------------------|
--------8-----7-----|--------5-----7-----|--------7-----5-----|
-----5-----5-----5--|-----5-----5-----5--|-----5-----5-----5--|
--6-----------------|--6-----------------|--3-----------------|
--------------------|--------------------|--------------------|


    E  E  E  E  E  E     E  E   E  E   E  E     E  E   E  E   E  E   
|---------------------|----------------------|----------------------|
|---------------------|----------------------|----------------------|
|*--------------------|--------10-----10-----|--------10-----10-----|
|*--------------------|-----8------8------8--|-----7------7------7--|
|------------5--6--8--|--6-------------------|--6-------------------|
|---5--6--8-----------|----------------------|----------------------|


  E  E  E  E  E  E     E  E  E  E  E  E      E  E   E  E   E  E   
--------------------|--------------------|-----------------------|
--------------------|--------------------|-----------------------|
--------3-----2-----|--------3-----2-----|---------10-----10-----|
-----0-----0-----0--|-----0-----0-----0--|------8------8------8--|
--------------------|--------------------|--/6-------------------|
--3-----------------|--3-----------------|-----------------------|


  E  E  E   E  E  E     E  E  E  E  E  E       E  E  E  E  E  S  S   
---------------------|---------------------||-----------------------|
--------8------------|---------------------||-----------------------|
-----------10--------|--------3-----2-----*||-----------------------|
-----7---------8--7--|-----0-----0-----0--*||--8--7--5--------------|
--6------------------|---------------------||-----------8--6--5h-6h-|
---------------------|--1------------------||-----------------------|


  H.              E  E  E  E  E  E     E  E  E  E  E  E     E  E  E  E  E  E   
---------------|--------------------|--------------------|--------------------|
---------------|--------------------|--------------------|--------------------|
---------------|--------3-----2-----|--------3-----2-----|--------3-----2-----|
---------------|-----0-----0-----0--|-----0-----0-----0--|-----0-----0-----0--|
--5------------|--------------------|--------------------|--------------------|
---------------|--3-----------------|--3-----------------|--1-----------------|


  E  E  E  E  E  E      E  E  E  E  E  E     E  E  E  E  E  E   
---------------------|--------------------|--------------------|
---------------------|--------------------|--------------------|
--------0------------|-----0-----0-----0--|-----0-----0--7-----|
-----0-----0--3------|--------8-----7-----|--------8--------5--|
-----------------3S--|--6-----------------|--6-----------------|
--1------------------|--------------------|--------------------|


  E  E  E  E  E  E     E  E  E  E  E  E     E  E  E  E  E  E   
--------------------|--------------------|--------------------|
--------------------|--------------------|--------------------|
--------7-----5-----|--3--2--0-----------|--------3-----2-----|
-----5-----5-----5--|-----------3--1--0--|-----0-----0-----0--|
--3-----------------|--------------------|--------------------|
--------------------|--------------------|--3-----------------|


  E  E  E  E  E  E     E  E  E  E  E  E     E  E  E  E  E  E   
--------------------|--------------------|--------------------|
--------------------|--------------------|--------------3-----|
--------3-----5-----|--------3-----2-----|--------3-----------|
-----0-----0-----0--|-----0-----0-----0--|-----0-----0-----0--|
--------------------|--------------------|--------------------|
--3-----------------|--1-----------------|--1-----------------|


  E  E  E  E  E  E     E  E  E  E  E  E     E  E  E  E  E  E   
--------------------|--------------------|--------------------|
--------------------|--------------------|--------------------|
--------8-----7-----|--------5-----7-----|--------7-----5-----|
-----5-----5-----5--|-----5-----5-----5--|-----5-----5-----5--|
--6-----------------|--6-----------------|--3-----------------|
--------------------|--------------------|--------------------|


  E  E  E  E  E  E     Q    Q     Q       Q    Q    Q       H.             
--------------------|------------------|-----------------|---------------||
--------------------|------------------|-----------------|---------------||
--------------------|------------------|-------2----L----|--L------------||
--8--7--5-----------|------------------|--0---------L----|--L------------||
-----------8--6--5--|--3---------------|-----------------|---------------||
--------------------|-------1----/3----|------------L----|--L------------||




Duration Legend
---------------
W - whole
H - half
Q - quarter
E - 8th
S - 16th
T - 32nd
X - 64th
. - note dotted
|-n-|  - n-tuplets


Tablature Legend
----------------
L - tied note
x - dead note
g - grace note
(n) - ghost note
> - accentuded note
NH - natural harmonic
AH - artificial harmonic
TH - tapped harmonic
SH - semi harmonic
PH - pitch harmonic
h - hammer on
p - pull off
b - bend
br - bendRelease
pb - preBend
pbr - preBendRelease
brb - bendReleaseBend
\n/ - tremolo bar dip
\n - tremolo bar dive
-/n - tremolo bar Release up
/n\ - tremolo bar inverted dip
/n - tremolo bar return
-\n - tremolo bar Release down
S - shift slide
s - legato slide
/ -  slide into from below or out of upwards
\ -  slide into from above or out of downwards
~ - vibrato
W - wide vibrato
tr - trill
TP - tremolo picking
T - tapping
S - slap
P - pop
< - fade in
^ - brush up
v - brush down
Tap to rate this tab
 
# A B C D E F G H I J K L M N O P Q R S T U V W X Y Z