Song name
# A B C D E F G H I J K L M N O P Q R S T U V W X Y Z

Prototype - Undying tab

My name is Khethelo. I don't normally do tabs because I'm lazy or someone
else has tabbed a song well enough to not require any alteration.

There are two solos in this song, as you know. One in the intro, and one in
the bridge. I've worked it by ear because I couldn't find a proper tab to
this song anywhere on the web, so I may or may not be helping you by sorting
this part out for you.

I played it in basic tuning. E A D...

Legend (Which you'd probably know by now):

/: Slide up
\: Slide down
~: Let ring
h: Hammer on
p: Pull off
': Quick picking (New)

And for noobs (Noobs shouldn't be able to play this song yet, but anyway):

#=Fret

Intro Solo
e|--------------------------------------------------------------------------|
B|---6/8~~~--10h11-10~~~---11/13~-11-10-11-10~--------10-11-10--------------|
G|--------------------------------------------------10---------12-----------|
D|------------------------------------------------12--------------12-13~~---|
A|----------------------------------------------13--------------------------|
E|--------------------------------------------------------------------------|

e|--------------------------------------------------------------------------|
B|--------------------------------------------------------------------------|
G|--------------------------------------------------------------------------|
D|---10/12\10~-8/10\8--7--10-10/12~~~---------------------------------------|
A|--------------------------------------------------------------------------|
E|----8/10\8~~-6/8-\6--5---8--8/10~~~---------------------------------------|

Bridge Solo (Two guitars required for the second half, or just play one half of it)

e|--------------------------------------------------------------------------|
B|--------------------------------------------------------------------------|
G|-------14-15-14-12-14-----------------------------------------------------|
D|----13----------------13--------------------------------------------------|
A|-13----------------------13-12-13-10-12---10-12-13-12-10-------------/10--|
E|---------------------------------------------------------13--10h11-10-----|

                                             {2nd half starts here-----------
e|-------------------------------------------{------------------------------|
B|------------------10-11-10-8-10-11/13-11-13{13/15---13-11-10---8-10-11/13-|
G|-------------10'12-------------------------{------------------------------|
D|-----10'12'13------------------------------{------------------------------|
A|-12'13-------------------------------------{------------------------------|
E|-------------------------------------------{------------------------------|

{2nd half continued----------------solo end}
e|-----------------------------------------}----------------|
B|--11-10-8---10h11-10---------------------}----------------|
G|-----------------------/10-------10/12---}----------------|
D|-----------------------------12----------}----------------|
A|-----------------------------------------}----------------|
E|-----------------------------------------}----------------|

{2nd half supplement---------------------------------------------}
e|-11/13---11-10-8---6-8-10/11---10-8-6---8h10-8----------------------------|
B|------------------------------------------------/10-------10h11-----------|
G|------------------------------------------------------10------------------|
D|--------------------------------------------------------------------------|
A|--------------------------------------------------------------------------|
E|--------------------------------------------------------------------------|

{Alternatively, you can play both with different fingers. It's close enough together}

And that's that... or... what I got from that...

If you feel like saying something to me, Here's my e-mail address:

Pungee_guy@yahoo.com

Tap to rate this tab
 
# A B C D E F G H I J K L M N O P Q R S T U V W X Y Z