Song name
# A B C D E F G H I J K L M N O P Q R S T U V W X Y Z

Proud Mary - Mexico chords

Highlighted       Show chord diagrams
-------------------------------------------------------------------------------
			     Mexico - Proud Mary
-------------------------------------------------------------------------------
Tabbed by:Archer18
Email:jakarcher18@hotmail.co.uk

Tuning:EADGBE

           A         A      F#m    E
e|--------------------------2--2---0--|
B|--------2-2----------2----2--2---0--|
G|--------2-2----------2----2--2---1--|
D|--------2-2----------2----4--4---2--|
A|--------0-0----------0----4--4---2--|
E|--3-5-------3-3-3-3-------2--2---0--|x2 

2nd time round of intro finish on a D

Verse:

D, A, Bm, G
D, A, G
D, A, Bm, G
D, A, G, G

Chorus:
D, A, Bm, G
D, A, G
D, A, Bm, G, G

Verse

Chorus

Solo - Bm

Intro riff
Tap to rate this tab
 
# A B C D E F G H I J K L M N O P Q R S T U V W X Y Z