Song name
# A B C D E F G H I J K L M N O P Q R S T U V W X Y Z

Prozac - Acido Acida tab

----------------------------------------------------------------------------
Acido Acida - Prozac+
----------------------------------------------------------------------------
Album: AcidoAcida

Email: andrea.vox@hotmail.it
Tabbed by: unknow

Tuning: E


    A   F    C    E
e|---------------------|
B|---------------------|
G|-------10--------9---|
D|---7---10---10---9---|
A|---7---8----10---7---|
E|---5--------8--------|


--------------------------------------------------------------------------

RIFF1:
e|-------------------------------------------------------------|
B|-------------------------------------------------------------|
G|------9-----9--------9-----9--------9-----9--------9-----9---|
D|---7-----7-----------------------10----10--------------------|
A|------------------8-----8-----------------------7-----7------|
E|-------------------------------------------------------------|

RIFF2:
e|-------------------------------------------------------------|
B|-------------------------------------------------------------|
G|------9-----9--------9-----9--------9-----9-----9..----------|
D|---7-----7-----------------------10----10-------9..----------|
A|------------------8-----8-----------------------7..----------|
E|-------------------------------------------------------------|



STROFA 1:
 
RIFF1
Mi sento scossa, agitata ah, agitata ah, un po' nervosa ah, uohuoh

RIFF2
acida come di piu' non si puo', di piu' non si puo', come un acido, uohuoh
 
A               F                       C                     E
Mi sento grande come una citta', come una citta', una gigante eh, uohuoh

A           F                    C                         E   
acido suono sento solo te, sento solo te, il resto che cos'e', uohuoh

A             F                C                    E   
acida sempre, acido per me, acido per te, acido cos'e'



CORO:
(ripetere pių volte le ottave)
e|------------------------|
B|--------10---------(9)--|
G|------------------------|
D|--------7----------(6)--|
A|------------------------|    x3
E|------------------------|
          A   F   C   E 
  uoh uoh uoooooooo          

e|------------------------|
B|--------10-----[10]-----|
G|------------------------|
D|--------7------[7]------|
A|------------------------|
E|------------------------|
          A   F  [C]     
  uoh uoh uoooooooo       



STROFA 2:

RIFF1
Che viaggio strano quando tornero' poi lo rifaro', poi lo rifaro', uohuoh

RIFF2
cosė lontano non son stata mai, non son stata mai, gia' ripartirei

A                 F                       C                  E
Mi sento bene, un po' stordita ah, ma gioiosa ah, ma gioiosa ah, uohuoh

A             F                 C                    E
acida dentro, acida con chi, acida con chi acido non e', uohuoh

A               F                     C                  E
acido il giorno mi rallegra ah, mi rallegra ah, testa acida uohuoh



RITORNELLO:
(ripetere pių volte le ottave)
e|-----------------------------------------------------|
B|--10----------12------------5------------9-----------|
G|-----------------------------------------------------|
D|--7-----------10------------2------------6-----------|
A|-----------------------------------------------------|
E|-----------------------------------------------------|
    A            F            C            E
    Acido Acida, Acido Acida, Acido Acida, Acido Acida, 

e|-----------------------------------------------------|
B|--10----------12------------5------------9-----------|
G|-----------------------------------------------------|
D|--7-----------10------------2------------6-----------|
A|-----------------------------------------------------|
E|-----------------------------------------------------|
    A            F            C            E
    Acido Acida, Acido Acida, Acido Acida, Acido  



CORO: ripetere il CORO.



STROFA 3:

RIFF1
Mi sento scossa, agitata ah, agitata ah, un po' nervosa ah, uohuoh

RIFF2
acida come di piu' non si puo', di piu' non si puo', come un acido, uohuoh
 
A               F                       C                     E
Mi sento grande come una citta', come una citta', una gigante eh, uohuoh

A           F                    C                         E   
acido suono sento solo te, sento solo te, il resto che cos'e', uohuoh

A             F                C                    E   
acida sempre, acido per me, acido per te, acido cos'e', uohuoh



RITORNELLO:
(ripetere pių volte le ottave)
e|-----------------------------------------------------|
B|--10----------12------------5------------9-----------|
G|-----------------------------------------------------|
D|--7-----------10------------2------------6-----------|
A|-----------------------------------------------------|  x3
E|-----------------------------------------------------|
    A            F            C            E
    Acido Acida, Acido Acida, Acido Acida, Acido Acida, 

e|-----------------------------------------------------|
B|--10----------12------------5------------9-----------|
G|-----------------------------------------------------|
D|--7-----------10------------2------------6-----------|
A|-----------------------------------------------------|
E|-----------------------------------------------------|
    A            F            C            E
    Acido Acida, Acido Acida, Acido Acida, Acido  



CORO FINALE
(ripetere pių volte le ottave)
e|------------------------|
B|--------10---------(9)--|
G|------------------------|
D|--------7----------(6)--|
A|------------------------|    x3
E|------------------------|
          A   F   C   E 
  uoh uoh uoooooooo    

e|-------------------------------------|
B|--------10---------(9)-------10..----|
G|-------------------------------------|
D|--------7----------(6)-------7..-----|
A|-------------------------------------|
E|-------------------------------------|
          A   F   C   E        A..
  uoh uoh uoooooooo   uoh uoh uoooooooo
Tap to rate this tab
# A B C D E F G H I J K L M N O P Q R S T U V W X Y Z