Song name
# A B C D E F G H I J K L M N O P Q R S T U V W X Y Z

Ps I Love You - Meet Me At The Muster Station Part 2 tab

-------------------------------------------------------------------------------
                             Meet me at the Muster Station pt2 - PS I Love You
-------------------------------------------------------------------------------
Tabbed by: David Aitchison
Email: davidaitch@yahoo.co.uk
www.myspace.com/psiloveyouband

Tuning: Standard

e|-3-3-3-3-3-3-3-3--3-3-3--5-5-5-5-5-----------------------------------------|
B|-0-0-0-0-0-0-0-0--0-0-0--0-0-0-0-0-----------------------------------------|
G|-0-0-0-0-0-0-0-0--0-0-0--0-0-0-0-0-----------------------------------------|
D|-0-0-0-0-0-0-0-0--2-2-2--2-2-2-2-2-----------------------------------------|
A|-2-2-2-2-2-2-2-2--3-3-3--3-3-3-3-3-----------------------------------------|
E|-3-3-3-3-3-3-3-3-----------------------------------------------------------|

e|-3-3-3-3-3-3-3-3--7-7-7--5-5-5-5-5-----------------------------------------|
B|-0-0-0-0-0-0-0-0--0-0-0--7-7-7-7-7-----------------------------------------|
G|-0-0-0-0-0-0-0-0--0-0-0--7-7-7-7-7-----------------------------------------|
D|-2-2-2-2-2-2-2-2--5-5-5--7-7-7-7-7-----------------------------------------|
A|-2-2-2-2-2-2-2-2--5-5-5--5-5-5-5-5-----------------------------------------|
E|-0-0-0-0-0-0-0-0---------5-5-5-5-5-----------------------------------------|
Tap to rate this tab
 
# A B C D E F G H I J K L M N O P Q R S T U V W X Y Z