Song name
# A B C D E F G H I J K L M N O P Q R S T U V W X Y Z

Ps I Love You - Facelove chords

Credit goes to burton12E4.
This is an extremely rough tab of his tutorial at:
http://www.youtube.com/watch?v=tiYO2Zoid5U


Chords used (see video for timing!).
e||---------------------------------9---11--||
b||-11----9--11----0-----------0----x---x---||
g||-9-----x--9-----11-9--11----11---11--11--||
d||-11----x--------9--------9--9------------||
a||-x-----10--------------------------------||
e||-12----11--------------------------------||


*boom-boom-tsh* *boom-boom-tsh* *boom-boom-tsh* *boom-boom-footswitch*

e||--0---------------0----------11---9---------------9----------11--||
b||-------------11------9h11--------------------11------9h11--------||
g||----------9---------------9---------------9---------------9------||
d||-----9h11----------------------------9h11------------------------||
a||-----------------------------------------------------------------||
e||-----------------------------------------------------------------||

...and then do some shredding.
Tap to rate this tab
 
# A B C D E F G H I J K L M N O P Q R S T U V W X Y Z