Song name
# A B C D E F G H I J K L M N O P Q R S T U V W X Y Z

Pseudo Echo - Funkytown tab

===============================================================
                   Pseudo Echo - Funkytown
===============================================================
Standard Tuning -
*NOTE* He Uses A Tremelo Bar


Intro (Riff is Harmonized with higher octaves on 3rd bar)
----------------------------------------------------------------|-----------------|
----------------------------------------------------------------|-----------------|
----------------------------------------------------------------|-7~~-7~7~7~7~----|
----------------------------5^----------------------------------|-7~~-7~7~7~7~----|
-7v~-5-7-5-5h7-5--7v~-5-7-5----7v~-5-7-5-5h7-5--7v~-5-7-7-------|-5~~-5~5~5~5~----|
----------------------------------------------------------3v~---|-----------------|

Intro Post Chorus
----------------------------------|
----------------------------------|
-----------7~7~7~7~---------------|
--2~-------7~7~7~7~--2~~----------|
--2~~------5~5~5~5~--2~~----------|
--0~~----------------0~~----------|

Verse Part A (Main Riff)           This other part is Verse Part B
-----------------------17-16------|-----------------------------------------------|
-17-17-15-17--------17-------17---|-----------------------17-16-------------------|
-------------16--16---------------|-16-16-14-16--------16-------16----------------|
----------------------------------|-------------16--16----------------------------|
----------------------------------|-----------------------------------------------|
----------------------------------|-----------------------------------------------|

Verse Part B
----------------------------------------------------------------------------------|
------------------------------------------------------------------15--15--15--15~-|
----------------------------------6--7----------------------------17b-17b-17b-17b~|
-9~~~~~~---9~-\7~-\6~-\4~-\2~~----6--7--2~~----------2~~--------------------------|
-9~~~~~~---x---x---x---x--\2~~~---4--5--2~~----------2~~--------------------------|
-7~~~~~----7~-\5~-\4~-\2~-\0~~~---------0~~---3p0-3^-0~~--------------------------|


Pre-Chorus
--------------------------------------------------------------------------15-15~--|
-----------------------------------------8---8---8---8~-------------------12-12~--|
------------------------------------D-B--10b-10b-10b-10b~-------------------------|
---9---9---7---7---6---6---4---4\2~-I-O-------------------------------------------|
---------------------------------2~-V-M-------------------------------------------|
-7---7---5---5---4---4---2---2---0~-E-B-------------------------------------------|
 *   *   *   *   *   *   *   *

Chorus                                                                          x2
-7-7~-7-7----7-7~-7-7----7-7~-7-7----7-7~-7-7-------------------------------------|
-8-8~-8-8----8-8~-8-8----8-8~-8-8----8-8~-8-8-------------------------------------|
-7-7~-7-7----7-7~-7-7----7-7~-7-7----7-7~-7-7-------------------------------------|
----------------------------------------------------------------------------------|
----------------------------------------------------------------------------------|
----------------------------------------------------------------------------------|

Post Chorus 2 (different from 1st)
-----------------------------------|
------------------8---8---8---8~---|
-------------9~---10b-10b-10b-10b~-|
-2~~~--------9~--------------------|
-2~~---------7~--------------------|
-0~~-------------------------------|

Play Verse Part A & B
Play Pre-Chorus
Play Chorus


Bridge/Pre-Solo (octave Harmony again like intro) E dive bomb at end           x2
-------------------------8br~~----------------8br--------------------------------|
-------------8br-8br-8br------------------8br-----8br-8b~~-----------------------|
---------------------------------------------------------------------------------|
-77-7-7-77\-------------------77-7-7-77\-----------------------------------------|
-77-7-7-77\-------------------77-7-7-77\-----------------------------------------|
-55-5-5-55\-------------------55-5-5-55\-----------------------------------------|


Solo
-10b~~-12p10---------------------------------------------------------------------|
-------------12p10-------10-------------------------8~-----8--8---8----------D-B-|
-------------------12~-12--12-12~-9-9----9v~~---10b~---10b~---10b-10b-9~~-0~-I-O-|
--------------------------------------12-------------------------------------V-M-|
-----------------------------------------------------------------------------E-B-|
---------------------------------------------------------------------------------|

-14b~-14b~14b~--------15p14p12-10h12--(x5)-----15b~~-----------------------------|
-------------------------------------------------------0~------------------------|
---------------------------------------------------------------------------------|
---------------------------------------------------------------------------------|
---------------------------------------------------------------------------------|
---------------------------------------------------------------------------------|

---------------------------------------------------------------------------------|
-5p3p0-5p3p0---7p5p0-7p5p0---8p5p0-8p5p0---10p8p0-10p8p0---12~~/-----------------|
---------------------------------------------------------------------------------|
-repeat each triplet twice-------------------------------------------------------|
---------------------------------------------------------------------------------|
---------------------------------------------------------------------------------|


Outro is a mix of Verse Part A and B which is pretty easy to follow
And youre Done. Please rate and comment.
Tap to rate this tab
# A B C D E F G H I J K L M N O P Q R S T U V W X Y Z