Song name
# A B C D E F G H I J K L M N O P Q R S T U V W X Y Z

Psiglo - En Un Lugar Un Nino tab

Transcribed by Máximo Mussini

The more electric version starts with some harmonics (D y A),
and the riff is played during the verse.
The more acoustic version plays the chords.

Riff 1:
-------------------------|-------------------------|
-------------------------|-------------------------|
-7-----------------------|-------------------------|
-7---------------4h-5h-4-|(5)--------------4h-5h-4-|
-5----x----x--5----------|-3----x----x--5----------|
-------------------------|-------------------------|

-------------------------|-------------------------|
-------------------------|-------------------------|
-------------------------|-------------------------|
(4)--------------4h-5h-4-|-------------------------|
-2----x----x--5----------|-x--3----2----0--2--3----|
-------------------------|-------------------------|

D       D/C       D/B        F
En un lugar, un niño va a nacer 
D       D/C       D/B        F
Su madre ve en su sed, la verdad 

B5  A5 B5
Hoy,
 A5    G5                        B5  A5 B5
ella comprende que el momento llegó 
         A5   G5                     C              F
y que en su vientre una semilla de amor va a brotar.


D       D/C       D/B        F
Dios por favor, quiero estar, junto a vos. 
D       D/C       D/B        F
Sé, que por fin, muy feliz voy a ser 

B5  A5 B5
Sé,
         A5    G5                  B5  A5 B5
que un hijo es algo fácil de conseguir 
         A5   G5                C             
y que un momento de amor puede dar el placer,
       F
y también el dolor.


 D               C      G
Dime tú, ¿qué futuro tendrá? (x 3)
 C     F    D   C   Bm   F 
Dime, dime


D       D/C       D/B        F
Dios por favor, quiero estar, junto a vos. 
D       D/C       D/B        F
Sé, que por fin, muy feliz voy a ser 

B5  A5 B5
Sé,
         A5    G5                  B5  A5 B5
que un hijo es algo fácil de conseguir 
         A5   G5                C             
y que un momento de amor puede dar el placer,
       F
y también el dolor.

 D                        C      G
Dime, dime, dimelo, dime ¿qué futuro? (x 5)
¿qué futuro tendrá ese hijo tuyo?
Tap to rate this tab
# A B C D E F G H I J K L M N O P Q R S T U V W X Y Z