Song name
# A B C D E F G H I J K L M N O P Q R S T U V W X Y Z

Psy - Gangnam Style tab

e|--7--7----7---10|--7---7-7-5-2-0-|
b|0---0---0----0--|0---0-----------|
g|----------------|----------------|
D|----------------|----------------|
A|----------------|----------------|
E|----------------|----------------|


e|0-0-0-2-2-2-----|
b|0-0-0-2-2-2-----|
g|0-0-0-2-2-2-----|
D|----------------|
A|----------------|
E|----------------|
Tap to rate this tab
# A B C D E F G H I J K L M N O P Q R S T U V W X Y Z