Song name
# A B C D E F G H I J K L M N O P Q R S T U V W X Y Z

Psy - Gangnam Style tab

-------------------------------------------------------------------------------
                             GANGNAM STYLE - PSY
-------------------------------------------------------------------------------
Tabbed by:Kyle Mendiola
E-mail:mendiolakyle@yahoo.com

Tuning:EADGBE
Main Riff
e|--------------------------------------------------------------------------|
B|--------------------------------------------------------------------------|
G|-----4----4---4----7-----4---4---4--2-------------------------------------|
D|----------------------------------------4--2------------------------------|
A|---2----2---2----5-----2---2----------------------------------------------|
E|--------------------------------------------------------------------------|
Pre-Chorus
e|--------------------------------------------------------------------------|
B|--------------------------------------------------------------------------|
G|--------------------------------------------------------------------------|
D|----5---7--9----5--7--4---------------------------------------------------|
A|----5---7--9----5--7--4---------------------------------------------------|
E|----3---5--7----3--5--2---------------------------------------------------|

Tap to rate this tab
# A B C D E F G H I J K L M N O P Q R S T U V W X Y Z