Song name
# A B C D E F G H I J K L M N O P Q R S T U V W X Y Z

Psyborg Corp - World Genocide Blast tab

-------------------------------------------------------------------------------
			     World Genocide Blast - Psyborg Corp
-------------------------------------------------------------------------------
Tabbed by:Khaki-Buzzard
Email:Metalingoose@msn.com

Tuning: Drop B

This song is of the Psyborg Corp's 1st debut album,
The Mechanical Renaissance. I have just transcribed
the synths and keyboards to the guitar and have used
drop B tuning for a more industrial metal type sound.
It is fairly simple to play, but listening to the
song will help you figure out the strumming patterns
for some of the riffs. Hope you enjoy the tab.

Opening Riff (x1)
C#|------------------------------------|
G#|------------------------------------|
 E|------------------------------------|
 B|-7-----4-----3-----7-----8-----11---|
F#|-7-----4-----3-----7-----8-----11---|
 B|-7-----4-----3-----7-----8-----11---|

   Verse Riff (x2)
C#|---------------------------------------------|
G#|---------------------------------------------|
 E|---------------------------------------------|
 B|---------------------------------------------|
F#|-12-9-12-9-12-9-12-9-11-8-11-8-15-12-15-12---|
 B|---------------------------------------------|

C#|-----------------------------------------|
G#|-----------------------------------------|
 E|-----------------------------------------|
 B|-----------------------------------------|
F#|-12-9-12-9-12-9-12-9-11-8-11-8-9-6-9-6---|
 B|-----------------------------------------|

C#|---------------------------------------------|
G#|---------------------------------------------|
 E|---------------------------------------------|
 B|---------------------------------------------|
F#|-12-9-12-9-12-9-12-9-11-8-11-8-15-12-15-12---|
 B|---------------------------------------------|

C#|-----------------------------------------------|
G#|-----------------------------------------------|
 E|-----------------------------------------------|
 B|-----------------------------------------------|
F#|-12-9-12-9-12-9-12-9-15-12-15-12-17-14-17-14---|
 B|-----------------------------------------------|

   Pre-Chorus (x2)
C#|------------------------------------------------------|
G#|------------------------------------------------------|
 E|------------------------------------------------------|
 B|------------------------------------------------------|
F#|------------------------------------------------------|
 B|-12-12-1212-12-12-12-1212-12-11-11-1111-11-7-7-77-7---|

C#|-----------------------------------------------------------|
G#|-----------------------------------------------------------|
 E|-----------------------------------------------------------|
 B|-----------------------------------------------------------|
F#|-------------------------------------------12-12-1212-12---|
 B|-12-12-1212-12-12-12-1212-12-11-11-1111-11-----------------|

   Chorus (x2)
C#|---------------------------------------|
G#|---------------------------------------|
 E|---------------------------------------|
 B|---------------------------------------|
F#|-8-8-88-8-8-8-88-8-7-7-77-7-4-4-44-4---|
 B|---------------------------------------|

C#|---------------------------------------|
G#|---------------------------------------|
 E|---------------------------------------|
 B|----------------------------7-7-77-7---|
F#|-8-8-88-8-8-8-88-8-7-7-77-7------------|
 B|---------------------------------------|

   Chorus Continued (x2)
C#|---------------------------------------8-7---|
G#|-------8-7-------------------8-7-------------|
 E|-5-8-5-----5-8-5-7-8---5-8-5-----5-8-5-------|
 B|---------------------------------------------|
F#|---------------------------------------------|
 B|---------------------------------------------|

   Verse Riff (x2)
C#|---------------------------------------------|
G#|---------------------------------------------|
 E|---------------------------------------------|
 B|---------------------------------------------|
F#|-12-9-12-9-12-9-12-9-11-8-11-8-15-12-15-12---|
 B|---------------------------------------------|

C#|-----------------------------------------|
G#|-----------------------------------------|
 E|-----------------------------------------|
 B|-----------------------------------------|
F#|-12-9-12-9-12-9-12-9-11-8-11-8-9-6-9-6---|
 B|-----------------------------------------|

C#|---------------------------------------------|
G#|---------------------------------------------|
 E|---------------------------------------------|
 B|---------------------------------------------|
F#|-12-9-12-9-12-9-12-9-11-8-11-8-15-12-15-12---|
 B|---------------------------------------------|

C#|-----------------------------------------------|
G#|-----------------------------------------------|
 E|-----------------------------------------------|
 B|-----------------------------------------------|
F#|-12-9-12-9-12-9-12-9-15-12-15-12-17-14-17-14---|
 B|-----------------------------------------------|

   Pre-Chorus (x2)
C#|------------------------------------------------------|
G#|------------------------------------------------------|
 E|------------------------------------------------------|
 B|------------------------------------------------------|
F#|------------------------------------------------------|
 B|-12-12-1212-12-12-12-1212-12-11-11-1111-11-7-7-77-7---|

C#|-----------------------------------------------------------|
G#|-----------------------------------------------------------|
 E|-----------------------------------------------------------|
 B|-----------------------------------------------------------|
F#|-------------------------------------------12-12-1212-12---|
 B|-12-12-1212-12-12-12-1212-12-11-11-1111-11-----------------|

   Chorus (x2)
C#|---------------------------------------|
G#|---------------------------------------|
 E|---------------------------------------|
 B|---------------------------------------|
F#|-8-8-88-8-8-8-88-8-7-7-77-7-4-4-44-4---|
 B|---------------------------------------|

C#|---------------------------------------|
G#|---------------------------------------|
 E|---------------------------------------|
 B|----------------------------7-7-77-7---|
F#|-8-8-88-8-8-8-88-8-7-7-77-7------------|
 B|---------------------------------------|

   Chorus Continued (x6)
C#|---------------------------------------8-7---|
G#|-------8-7-------------------8-7-------------|
 E|-5-8-5-----5-8-5-7-8---5-8-5-----5-8-5-------|
 B|---------------------------------------------|
F#|---------------------------------------------|
 B|---------------------------------------------|

   Bridge (x1)
C#|-----------------------------------------------------------------|
G#|-----------------------------------------------------------------|
 E|-----------------------------------------------------------------|
 B|-----------------------------------------------------------7-8---|
F#|-5-55-55-8-88-88-4-44-44-4-5-8---5-55-55-8-88-88-4-44-44-4-------|
 B|-----------------------------------------------------------------|

C#|-------------------------------------------------------------|
G#|-------------------------------------------------------------|
 E|-------------------------------------------------------------|
 B|-------------------------------------------------------------|
F#|-5-55-55-8-88-88-4-44-44-4-5-8---5-55-55-8-88-88-4-44-44-4---|
 B|-------------------------------------------------------------|

   Bridge Continued (x4)
C#|-----------------------------------------------------------------|
G#|-----------------------------------------------------------------|
 E|-----------------------------------------------------------------|
 B|-----------------------------------------------------------7-8---|
F#|-5-55-55-8-88-88-4-44-44-4-5-8---5-55-55-8-88-88-4-44-44-4-------|
 B|-----------------------------------------------------------------|

   Chorus (x6)
C#|---------------------------------------|
G#|---------------------------------------|
 E|---------------------------------------|
 B|---------------------------------------|
F#|-8-8-88-8-8-8-88-8-7-7-77-7-4-4-44-4---|
 B|---------------------------------------|

C#|---------------------------------------|
G#|---------------------------------------|
 E|---------------------------------------|
 B|----------------------------7-7-77-7---|
F#|-8-8-88-8-8-8-88-8-7-7-77-7------------|
 B|---------------------------------------|

   Outro (x1)
C#|---------------------------|
G#|---------------------------|
 E|---------------------------|
 B|---------------------------|
F#|-8-5-8-5-7-4-8-5-8-5-7-4---|
 B|---------------------------|

   Outro Continued (x4)
C#|---------------------------|
G#|---------------------------|
 E|---------------------------|
 B|-----------7---------------|
F#|-8-5-8-5-7---8-5-8-5-7-4---|
 B|---------------------------|

C#|---------------------------|
G#|---------------------------|
 E|---------------------------|
 B|-----------7---------7-8---|
F#|-8-5-8-5-7---8-5-8-5-------|
 B|---------------------------|

http://www.myspace.com/psyborgcorp 

Tap to rate this tab
# A B C D E F G H I J K L M N O P Q R S T U V W X Y Z