Song name
# A B C D E F G H I J K L M N O P Q R S T U V W X Y Z

Psychedelic Furs - Heaven tab

artist: the psychedelic furs
song: heaven
tuning: standard
tabbed by: batesyy


/chorus

|--------------------------|
|--------------------------|
|--5--4--2-----------5--5--|
|--5--4--2--5--3--3--5--5--|
|--3--2--0--5--3--3--3--3--|
|-----------3--1--1--------|

|-------------------------------------|
|--5----5----------5-----8----5-------|
|----------5----------5---------5-----|
|-------------5--------------------5--|
|-------------------------------------|
|-------------------------------------|

/verse

|--------|
|--------|
|-----5--|
|--3--5--|
|--3--3--|
|--1-----|
Tap to rate this tab
 
# A B C D E F G H I J K L M N O P Q R S T U V W X Y Z