Song name
# A B C D E F G H I J K L M N O P Q R S T U V W X Y Z

Psycho Motel - Underground tab

-----------------------------------------------------------------

                Psycho Motel - Underground
-----------------------------------------------------------------


Tabbed by: Garr1
Email: garr.chris@gmail.com

Tuning: DADGBE

Drop D tuning

Intro Lead
e|----------------------------------------------------------|
B|----------------------------------------------------------|
G|-----7-8-10-------6-5-3-------7-8-10----13-11-10--8-10-7--|
D|-8------------8-----------3-------------------------------|
A|----------------------------------------------------------|
E|----------------------------------------------------------|


e|----------------------------------------------------------|
B|----------------------------------------------------------|
G|-7-8-10------6-5-3-----7-8-10/11--------------------------|
D|----------8---------3-------------------------------------|
A|----------------------------------------------------------|
E|----------------------------------------------------------|


Verse
e|----------------------------------------------------------|
B|----------------------------------------------------------|
G|----------------------------------------------------------|
D|-6---8---8-8-8----5--5-3--1--------4------5---6-----------|
A|-6---8---8-8-8----5--5-3--1------4------3-----6-----------|
E|-6-h-8---8-8-8----5--5-3--1----4------5-------6-----------|

e|----------------------------------------------------------|
B|----------------------------------------------------------|
G|----------------------------------------------------------|
D|-6---8--8-8-8---5--5-3--1--------4-------3-------3--------|
A|-6---8--8-8-8---5--5-3--1------4-------1-------1----------|
E|-6-h-8--8-8-8---5--5-3--1----4-------3-------1------------|


Interlude                            this part is for the solo's
e|------------------------------------/----------------------|
B|------------------------------------/----------------------|
G|------------------------------------/----------------------|
D|-1-3-3---1--3---1-3---1-3---1-3--4--/--4--5--6--7----------|
A|-1-3-3---1--3---1-3---1-3---1-3--4--/--4--5--6--7----------|
E|-1-3-3---1--3---1-3---1-3---1-3--4--/--4--5--6--7----------|


Chorus
e|----------------------------------------------------------|
B|--7----------9----4---------------------------------------|
G|--6----6-----8----3---------------------------------------|
D|--4----6-----6----1---------------------------------------|
A|--4----4-----6----1---------------------------------------|
E|--4----------6----1---------------------------------------|


Adrian Smith Solo 1
e|----------------------------------------------------------|
B|----------------------------------------------------------|
G|--7br7-8----8-----10--------------------------------------|
D|---------10----10----10--8------------6---6--8br8---------|
A|-----------------------------8------8---8-----------------|
E|----------------------------------------------------------|

Adrian Smith Solo 2
e|---------6-8-9-8-6-------------------------------18-------|
B|-9b-----------------6-----------------16br16-15------15---|
G|-----------------------6\5------------------------------15|
D|----------------------------8-----------------------------|
A|----------------------------------------------------------|
E|----------------------------------------------------------|

e|-----------------------------------11-13-14-13-11---------|
B|--------------------------11-13-14----------------14-13-11|
G|-------------------10-11----------------------------------|
D|---------10-11-13-----------------------------------------|
A|-9-11-13--------------------------------------------------|
E|----------------------------------------------------------|

e|----------------------------------------------------------|
B|----------------------------------------------------------|
G|-13-11--------(10)---(8)----------------------------------|
D|----------------------------------------------------------|
A|----------------------------------------------------------|
E|----------------------------------------------------------|

Adrian Smith Solo 3
e|----------------------------------------------------------|
B|----------------------------------------------------------|
G|--------------------------------------8----------8h10-----|
D|-3--1-------------------8-----7-8-10-----10-8-7-----------|
A|--------3p1--p0----6h8-----8------------------------------|
E|----------------------------------------------------------|


e|----------------------------------------------------------|
B|-8-9-8--------------------------------------10h11-10h11---|
G|-------10-9-----8-----------------8----10---------------10|
D|--------------------8-7h8---7h8-----10--------------------|
A|----------------------------------------------------------|
E|----------------------------------------------------------|

e|----------------------------------------------------------|
B|----------------------------------------------------------|
G|-10-------------------------------------------------------|
D|----------------------------------------------------------|
A|----------------------------------------------------------|
E|----------------------------------------------------------|

e|----------------------------------------------------------|
B|----------------------------------------------------------|
G|--7br7-8----8-----10--------------------------------------|
D|---------10----10----10--8------------6---6--8br8---------|
A|-----------------------------8------8---8-----------------|
E|----------------------------------------------------------|

Adrian Smith solo 4
e|-11br11-11p10-----------------------------16--------16-18-|
B|--------------11-------16-18-19--16-18-19-----18-19-------|
G|----------------------------------------------------------|
D|----------------------------------------------------------|
A|----------------------------------------------------------|
E|----------------------------------------------------------|

e|-20---21-20--18-------------------------------------------|
B|------------------21br21--18-----16h18p16---15h16p15------|
G|----------------------------------------------------------|
D|----------------------------------------------------------|
A|----------------------------------------------------------|
E|----------------------------------------------------------|

e|----------------------------------------------------------|
B|-13h15p13----11-------------------------------------------|
G|----------------------------------------------------------|
D|----------------------------------------------------------|
A|----------------------------------------------------------|
E|----------------------------------------------------------|

End on this
e|----------------------------------------------------------|
B|----------------------------------------------------------|
G|-------------------7--------------------------------------|
D|----------6-8-10------------------------------------------|
A|--6-8-10--------------------------------------------------|
E|----------------------------------------------------------|

Ending chords
e|----------------------------------------------------------|
B|----------------------------------------------------------|
G|----------------------------------------------------------|
D|--4-3-1-3---4--6--8---------------------------------------|
A|--4-3-1-3---4--6--8---------------------------------------|
E|--4-3-1-3---4--6--8---------------------------------------|


intro = verse chords
solo 1 = interlude chords
solo 2 = verse chords
solo 3 = interlude chords
solo 4 = verse chords
Tap to rate this tab
 
# A B C D E F G H I J K L M N O P Q R S T U V W X Y Z