Guitaretab - guitar tabs
Song name
# A B C D E F G H I J K L M N O P Q R S T U V W X Y Z

Psycho Motel - A Quarter To Heaven tab

A Quarter To Heaven!!

Main solo

e----------------------------------------------|
b----------------------------------------------|
g------------------------------7-7-------------|
d-----2---2----------------7h9----9p7---7h9----|
a/2-5---5---5~-2-0-2/5~-/9------------9-----7~-|
e----------------------------------------------|

e-------------------------------7-----7-----7-----7-------------|
b--10---------------10/12-10^12--10^12-10^12-19^12-10^12--------|
g-----9^10-9-7--h9~---------------------------------------------|
d9-------------9------------------------------------------------|
a---------------------------------------------------------------|
e---------------------------------------------------------------|

e-----------(14)--------14---------------------------------------|
b/15-(15)^17-17^19~~~15------------------------------------------|
g-------------------------16-14-----------9h11-9^11r9~-----------|
d-------------------------------16-14--9-------------------------|
a----------------------------------------------------------------|
e----------------------------------------------------------------|
[ Tab from: http://www.guitaretab.com/p/psycho-motel/92240.html ]
e---------------------------------------------------------------|
b------7--------------------------------------------------------|
g7---9---7~-------------9-9-p7-11p9p7-9p7---7-------------------|
d--9-------9-7---7-9----------------------9---7~----------------|
a--------------9-----7~-----------------------------------------|
e---------------------------------------------------------------|

e---------------------------------------------------------------------------|
b---------------------------------------------------------------------------|
g------------------------------------9-8-7-------10-9-7---------------------|
d9-8-7-------9-8-7-------9-8-7-------------9-8-7-------9-8-7-------9-8-7----|
a------9-8-7-------9-8-7-------9-8-7-------------------------9-8-7-------9--|
e---------------------------------------------------------------------------|

Outro solo

e----------------------------------------------|
b----------------------------------------------|
g----------------------------------------------|
d-9~-------------------------------------------|
a----------------------------------------------|
e----------------------------------------------|

e----------------------------------------------|
b----------------------------------------------|
g----------------------------------------------|
d----------------------------------------------|
a----------------------------------------------|
e----------------------------------------------|
Related for A Quarter To Heaven tab