Song name
# A B C D E F G H I J K L M N O P Q R S T U V W X Y Z

Psychostick - Jagermeister Love Song tab

Help us improve GuitareTab! Take a short survey!
Psychostick - Jagermeister Love Song

This is not 100% accurate but it's as close as I can hear it.

tuning - C# G# C# F# A# D#

key

/  - slide up to note
\  - slide down to note
X  - string picked but with fret finger lightly touching when played with chord
(x)- notes fretted but not struck *slides, hammer ons and pull offs*
PM - Palm muting on the selected notes
*  - selected single notes for PMs
-- - selected lines of notes for PMs

D#|----------------|------------------|----------------|------------------|
A#|----------------|------------------|----------------|------------------|
F#|----------------|------------------|----------------|------------------|
C#|----------------|------------------|----------------|------------------|
G#|----------------|------------------|----------------|------------------|
C#|6-0-6-1--0--0-1-|(1)0--1-4-4-4-4---|6-0-6-1--0--0-1-|(1)0--0-4---------|

D#|----------------|------------------|
A#|----------------|------------------|
F#|----------------|------------------|
C#|6-0-6-1--0--0-1-|(1)0--1-4-4-4-4---|
G#|6-0-6-1--0--0-1-|(1)0--1-4-4-4-4---|
C#|6-0-6-1--0--0-1-|(1)0--1-4-4-4-4---| x2

PM -------------------------------------------------------------------
D#|----------------|----------------|----------------|----------------|
A#|----------------|----------------|----------------|----------------|
F#|----------------|----------------|----------------|----------------|
C#|0--0--0-0--0--0-|0--0--0-0--0--0-|0--0--0-0--0--0-|3--3--3-4--4--4-|
G#|0--0--0-0--0--0-|0--0--0-0--0--0-|0--0--0-0--0--0-|3--3--3-4--4--4-|
C#|0--0--0-0--0--0-|0--0--0-0--0--0-|0--0--0-0--0--0-|3--3--3-4--4--4-|

D#|----------------|------------------|
A#|----------------|------------------|
F#|----------------|------------------|
C#|6-0-6-1--0--0-1-|(1)0--1-4-4-4-4---|
G#|6-0-6-1--0--0-1-|(1)0--1-4-4-4-4---|
C#|6-0-6-1--0--0-1-|(1)0--1-4-4-4-4---| x2

PM ----------------------------------------------------------
D#|----------------|----------------|----------------|----------------|
A#|----------------|----------------|----------------|----------------|
F#|----------------|----------------|----------------|----------------|
C#|0--0--0-0--0--0-|0--0--0-0--0--0-|0--0--0-0--0--0-|3--3--3-4-4-4-4-|
G#|0--0--0-0--0--0-|0--0--0-0--0--0-|0--0--0-0--0--0-|3--3--3-4-4-4-4-|
C#|0--0--0-0--0--0-|0--0--0-0--0--0-|0--0--0-0--0--0-|3--3--3-4-4-4-4-|

             /   /                                     /   / 
PM   *                                         *           
D#|----------------|------------------------|----------------|----------------|
A#|----------------|------------------------|----------------|----------------|
F#|----------------|------------------------|----------------|----------------|
C#|1-0-0---1-3-3-6-|-6--6--6--6--6--6--6--6-|1-0-0---1-3-3-6-|6-6-6-6-6-6-6-6-|
G#|1-0-0---1-3-3-6-|-6--6--6--6--6--6--6--6-|1-0-0---1-3-3-6-|6-6-6-6-6-6-6-6-|
C#|1-0-0---1-3-3-6-|-6--6--6--6--6--6--6--6-|1-0-0---1-3-3-6-|6-6-6-6-6-6-6-6-|
  |                |                        |                |                |
D#|----------------|------------------------|----------------|----------------|
A#|----------------|------------------------|----------------|----------------|
F#|----------------|11-11-11-11-11-11-11-11-|----------------|8-8-8-8-8-8-8-8-|
C#|----------------|-X--X--X--X--X--X--X--X-|----------------|X-X-X-X-X-X-X-X-|
G#|----------------|-9--9--9--9--9--9--9--9-|----------------|6-6-6-6-6-6-6-6-|
C#|----------------|------------------------|----------------|----------------|

             /   /                                     /   / 
PM   *                                         *           
D#|----------------|------------------------|----------------|----------------|
A#|----------------|------------------------|----------------|----------------|
F#|----------------|------------------------|----------------|----------------|
C#|1-0-0---1-3-3-6-|-6--6--6--6--6--6--6--6-|1-0-0---1-3-3-6-|6-6-6-6-6-6-6-6-|
G#|1-0-0---1-3-3-6-|-6--6--6--6--6--6--6--6-|1-0-0---1-3-3-6-|6-6-6-6-6-6-6-6-|
C#|1-0-0---1-3-3-6-|-6--6--6--6--6--6--6--6-|1-0-0---1-3-3-6-|6-6-6-6-6-6-6-6-|
  |                |                        |                |                |
D#|----------------|------------------------|----------------|----------------|
A#|----------------|------------------------|----------------|----------------|
F#|----------------|11-11-11-11-11-11-11-11-|----------------|--------8-8-7-7-|
C#|----------------|-X--X--X--X--X--X--X--X-|----------------|--------X-X-X-X-|
G#|----------------|-9--9--9--9--9--9--9--9-|----------------|--------6-6-5-5-|
C#|----------------|------------------------|----------------|----------------|

             /   /                                     /   / 
PM   *                                         *           
D#|----------------|------------------------|----------------|----------------|
A#|----------------|------------------------|----------------|----------------|
F#|----------------|------------------------|----------------|----------------|
C#|1-0-0---1-3-3-6-|-6--6--6--6--6--6--6--6-|1-0-0---1-3-3-6-|6-6-6-6-6-6-6-6-|
G#|1-0-0---1-3-3-6-|-6--6--6--6--6--6--6--6-|1-0-0---1-3-3-6-|6-6-6-6-6-6-6-6-|
C#|1-0-0---1-3-3-6-|-6--6--6--6--6--6--6--6-|1-0-0---1-3-3-6-|6-6-6-6-6-6-6-6-|
  |                |                        |                |                |
D#|----------------|------------------------|----------------|----------------|
A#|----------------|------------------------|----------------|----------------|
F#|----------------|11-11-11-11-11-11-11-11-|----------------|8-8-8-8-8-8-8-8-|
C#|----------------|-X--X--X--X--X--X--X--X-|----------------|X-X-X-X-X-X-X-X-|
G#|----------------|-9--9--9--9--9--9--9--9-|----------------|6-6-6-6-6-6-6-6-|
C#|----------------|------------------------|----------------|----------------|

             /   /                                     /   / 
PM   *                                         *           
D#|----------------|------------------------|----------------|----------------|
A#|----------------|------------------------|----------------|----------------|
F#|----------------|------------------------|----------------|----------------|
C#|1-0-0---1-3-3-6-|-6--6--6--6--6--6--6--6-|1-0-0---1-3-3-6-|6-6-6-6-6-6-6-6-|
G#|1-0-0---1-3-3-6-|-6--6--6--6--6--6--6--6-|1-0-0---1-3-3-6-|6-6-6-6-6-6-6-6-|
C#|1-0-0---1-3-3-6-|-6--6--6--6--6--6--6--6-|1-0-0---1-3-3-6-|6-6-6-6-6-6-6-6-|
  |                |                        |                |                |
D#|----------------|------------------------|----------------|----------------|
A#|----------------|------------------------|----------------|----------------|
F#|----------------|11-11-11-11-11-11-11-11-|----------------|--------8-8-7-7-|
C#|----------------|-X--X--X--X--X--X--X--X-|----------------|--------X-X-X-X-|
G#|----------------|-9--9--9--9--9--9--9--9-|----------------|--------6-6-5-5-|
C#|----------------|------------------------|----------------|----------------|

*Hold C#5 for 5 1/2 measures count last two beats*

                                                                 /     /
PM ----------------------------------------------------------        
D#|----------------|----------------|----------------|-------------------|
A#|----------------|----------------|----------------|-------------------|
F#|----------------|----------------|----------------|--------8-10-10-13-|
C#|0--0--0-------00|0--0--0-----0000|0--0--0---000000|0--0--0-X--X--X--X-|
G#|0--0--0-------00|0--0--0-----0000|0--0--0---000000|0--0--0-6--8--8-10-|
C#|0--0--0-------00|0--0--0-----0000|0--0--0---000000|0--0--0------------|

                                                                 \   \
PM ----------------------------------------------------------         
D#|----------------|----------------|----------------|-----------------|
A#|----------------|----------------|----------------|-----------------|
F#|----------------|----------------|----------------|--------10-8-8-7-|
C#|0--0--0-------00|0--0--0-----0000|0--0--0---000000|0--0--0--X-X-X-X-|
G#|0--0--0-------00|0--0--0-----0000|0--0--0---000000|0--0--0--8-6-6-5-|
C#|0--0--0-------00|0--0--0-----0000|0--0--0---000000|0--0--0----------|

                                                                 /     /
PM ----------------------------------------------------------        
D#|----------------|----------------|----------------|-------------------|
A#|----------------|----------------|----------------|-------------------|
F#|----------------|----------------|----------------|--------8-10-10-13-|
C#|0--0--0-------00|0--0--0-----0000|0--0--0---000000|0--0--0-X--X--X--X-|
G#|0--0--0-------00|0--0--0-----0000|0--0--0---000000|0--0--0-6--8--8-10-|
C#|0--0--0-------00|0--0--0-----0000|0--0--0---000000|0--0--0------------|

                                                                 \   \
PM ----------------------------------------------------------         
D#|----------------|----------------|----------------|-----------------|
A#|----------------|----------------|----------------|-----------------|
F#|----------------|----------------|----------------|--------10-8-8-7-|
C#|0--0--0-------00|0--0--0-----0000|0--0--0---000000|0--0--0--X-X-X-X-|
G#|0--0--0-------00|0--0--0-----0000|0--0--0---000000|0--0--0--8-6-6-5-|
C#|0--0--0-------00|0--0--0-----0000|0--0--0---000000|0--0--0----------|

PM --------------------------
D#|----------------|----------------|
A#|----------------|----------------|
F#|----------------|----------------|
C#|0--0--0-0--0--0-|0--0--0-0-------|
G#|0--0--0-0--0--0-|0--0--0-0-------|
C#|0--0--0-0--0--0-|0--0--0-0-------|

             /   /                                     /   / 
PM   *                                         *           
D#|----------------|------------------------|----------------|----------------|
A#|----------------|------------------------|----------------|----------------|
F#|----------------|------------------------|----------------|----------------|
C#|1-0-0---1-3-3-6-|-6--6--6--6--6--6--6--6-|1-0-0---1-3-3-6-|6-6-6-6-6-6-6-6-|
G#|1-0-0---1-3-3-6-|-6--6--6--6--6--6--6--6-|1-0-0---1-3-3-6-|6-6-6-6-6-6-6-6-|
C#|1-0-0---1-3-3-6-|-6--6--6--6--6--6--6--6-|1-0-0---1-3-3-6-|6-6-6-6-6-6-6-6-|
  |                |                        |                |                |
D#|----------------|------------------------|----------------|----------------|
A#|----------------|------------------------|----------------|----------------|
F#|----------------|11-11-11-11-11-11-11-11-|----------------|8-8-8-8-8-8-8-8-|
C#|----------------|-X--X--X--X--X--X--X--X-|----------------|X-X-X-X-X-X-X-X-|
G#|----------------|-9--9--9--9--9--9--9--9-|----------------|6-6-6-6-6-6-6-6-|
C#|----------------|------------------------|----------------|----------------|

             /   /                                     /   / 
PM   *                                         *           
D#|----------------|------------------------|----------------|----------------|
A#|----------------|------------------------|----------------|----------------|
F#|----------------|------------------------|----------------|----------------|
C#|1-0-0---1-3-3-6-|-6--6--6--6--6--6--6--6-|1-0-0---1-3-3-6-|6-6-6-6-6-6-6-6-|
G#|1-0-0---1-3-3-6-|-6--6--6--6--6--6--6--6-|1-0-0---1-3-3-6-|6-6-6-6-6-6-6-6-|
C#|1-0-0---1-3-3-6-|-6--6--6--6--6--6--6--6-|1-0-0---1-3-3-6-|6-6-6-6-6-6-6-6-|
  |                |                        |                |                |
D#|----------------|------------------------|----------------|----------------|
A#|----------------|------------------------|----------------|----------------|
F#|----------------|11-11-11-11-11-11-11-11-|----------------|--------8-8-7-7-|
C#|----------------|-X--X--X--X--X--X--X--X-|----------------|--------X-X-X-X-|
G#|----------------|-9--9--9--9--9--9--9--9-|----------------|--------6-6-5-5-|
C#|----------------|------------------------|----------------|----------------|

             /   /                                     /   / 
PM   *                                         *           
D#|----------------|------------------------|----------------|----------------|
A#|----------------|------------------------|----------------|----------------|
F#|----------------|------------------------|----------------|----------------|
C#|1-0-0---1-3-3-6-|-6--6--6--6--6--6--6--6-|1-0-0---1-3-3-6-|6-6-6-6-6-6-6-6-|
G#|1-0-0---1-3-3-6-|-6--6--6--6--6--6--6--6-|1-0-0---1-3-3-6-|6-6-6-6-6-6-6-6-|
C#|1-0-0---1-3-3-6-|-6--6--6--6--6--6--6--6-|1-0-0---1-3-3-6-|6-6-6-6-6-6-6-6-|
  |                |                        |                |                |
D#|----------------|------------------------|----------------|----------------|
A#|----------------|------------------------|----------------|----------------|
F#|----------------|11-11-11-11-11-11-11-11-|----------------|8-8-8-8-8-8-8-8-|
C#|----------------|-X--X--X--X--X--X--X--X-|----------------|X-X-X-X-X-X-X-X-|
G#|----------------|-9--9--9--9--9--9--9--9-|----------------|6-6-6-6-6-6-6-6-|
C#|----------------|------------------------|----------------|----------------|

             /   /                                     /   / 
PM   *                                         *           
D#|----------------|------------------------|----------------|----------------|
A#|----------------|------------------------|----------------|----------------|
F#|----------------|------------------------|----------------|----------------|
C#|1-0-0---1-3-3-6-|-6--6--6--6--6--6--6--6-|1-0-0---1-3-3-6-|6-6-6-6-6-6-6-6-|
G#|1-0-0---1-3-3-6-|-6--6--6--6--6--6--6--6-|1-0-0---1-3-3-6-|6-6-6-6-6-6-6-6-|
C#|1-0-0---1-3-3-6-|-6--6--6--6--6--6--6--6-|1-0-0---1-3-3-6-|6-6-6-6-6-6-6-6-|
  |                |                        |                |                |
D#|----------------|------------------------|----------------|----------------|
A#|----------------|------------------------|----------------|----------------|
F#|----------------|11-11-11-11-11-11-11-11-|----------------|--------8-8-7-7-|
C#|----------------|-X--X--X--X--X--X--X--X-|----------------|--------X-X-X-X-|
G#|----------------|-9--9--9--9--9--9--9--9-|----------------|--------6-6-5-5-|
C#|----------------|------------------------|----------------|----------------|
Related for Jagermeister Love Song tab