Guitaretab - guitar tabs
Song name
# A B C D E F G H I J K L M N O P Q R S T U V W X Y Z

Psychostick - Beer Song tab

BEER - Psychostick

Verses

Eb|----------------------|
Bb|----------------------|
Gb|----------------------|
Db|----------------------|
Ab|---5---5---5----------|
Db|-0---0---0---0-3-(x4)-|

Eb|---------------------------------------------------------|
Bb|---------------------------------------------------------|
Gb|-------------------------------------------------7---7-7-|
Db|---7---7---7-0-3--------6---6---6---4--------6---6---6-6-|
Ab|---5---5---5-0-3--------5---5---5---3--------5---5---5-5-|
Db|-0---0---0---0-3-(x3)-0---0---0---0---(x4)-0---0---0-----|

Chorus
[ Tab from: http://www.guitaretab.com/p/psychostick/147488.html ]
Eb|----------------------------------|
Bb|----------------------------------|
Gb|----------------------------------|
Db|-600--600--600--00--006--006--006-|
Ab|-600--600--600--00--006--006--006-|
Db|-600--600--600--00--006--006--006-|
BEER IS GOOD...

Lets go drink some

Eb|-------------------------------------|
Bb|-------------------------------------|
Gb|-------------------------------------|
Db|-0-0060-00-0060-00-0060--00-0060--00-|
Ab|-0-0060-00-0060-00-0060--00-0060--00-|
Db|-0-0060-00-0060-00-0060--00-0060--00-|
Meh...The patterns probably not right, buts its the right notes

Eb|-----------|
Bb|-----------|
Gb|-----------|
Db|-0-6-0-6-0-|
Ab|-0-6-0-6-0-|
Db|-0-6-0-6-0-|

And the last riff

Eb|---------------------------------|
Bb|---------------------------------|
Gb|---------------------------------|
Db|-1-0-0-0-1-0-0-0-1-0-0-0-3-4-3-2-|
Ab|-1-0-0-0-1-0-0-0-1-0-0-0-3-4-3-2-|
Db|-1-0-0-0-1-0-0-0-1-0-0-0-3-4-3-2-|
Related for Beer Song tab